  0
SECTION
  2
HEADER
  9
$ACADVER
  1
AC1018
  9
$ACADMAINTVER
 70
     0
  9
$DWGCODEPAGE
  3
ANSI_1252
  9
$INSBASE
 10
0.0
 20
0.0
 30
0.0
  9
$EXTMIN
 10
-79.0
 20
-72.0
 30
0.0
  9
$EXTMAX
 10
225.0
 20
72.66122492754523
 30
0.0
  9
$LIMMIN
 10
0.0
 20
0.0
  9
$LIMMAX
 10
12.0
 20
9.0
  9
$ORTHOMODE
 70
     0
  9
$REGENMODE
 70
     1
  9
$FILLMODE
 70
     1
  9
$QTEXTMODE
 70
     0
  9
$MIRRTEXT
 70
     1
  9
$LTSCALE
 40
1.0
  9
$ATTMODE
 70
     1
  9
$TEXTSIZE
 40
0.2
  9
$TRACEWID
 40
0.05
  9
$TEXTSTYLE
  7
Standard
  9
$CLAYER
  8
Default
  9
$CELTYPE
  6
ByLayer
  9
$CECOLOR
 62
   256
  9
$CELTSCALE
 40
1.0
  9
$DISPSILH
 70
     0
  9
$DIMSCALE
 40
1.0
  9
$DIMASZ
 40
0.18
  9
$DIMEXO
 40
0.0625
  9
$DIMDLI
 40
0.38
  9
$DIMRND
 40
0.0
  9
$DIMDLE
 40
0.0
  9
$DIMEXE
 40
0.18
  9
$DIMTP
 40
0.0
  9
$DIMTM
 40
0.0
  9
$DIMTXT
 40
0.18
  9
$DIMCEN
 40
0.09
  9
$DIMTSZ
 40
0.0
  9
$DIMTOL
 70
     0
  9
$DIMLIM
 70
     0
  9
$DIMTIH
 70
     1
  9
$DIMTOH
 70
     1
  9
$DIMSE1
 70
     0
  9
$DIMSE2
 70
     0
  9
$DIMTAD
 70
     0
  9
$DIMZIN
 70
     0
  9
$DIMBLK
  1

  9
$DIMASO
 70
     1
  9
$DIMSHO
 70
     1
  9
$DIMPOST
  1

  9
$DIMAPOST
  1

  9
$DIMALT
 70
     0
  9
$DIMALTD
 70
     2
  9
$DIMALTF
 40
25.4
  9
$DIMLFAC
 40
1.0
  9
$DIMTOFL
 70
     0
  9
$DIMTVP
 40
0.0
  9
$DIMTIX
 70
     0
  9
$DIMSOXD
 70
     0
  9
$DIMSAH
 70
     0
  9
$DIMBLK1
  1

  9
$DIMBLK2
  1

  9
$DIMSTYLE
  2
Standard
  9
$DIMCLRD
 70
     0
  9
$DIMCLRE
 70
     0
  9
$DIMCLRT
 70
     0
  9
$DIMTFAC
 40
1.0
  9
$DIMGAP
 40
0.09
  9
$DIMJUST
 70
     0
  9
$DIMSD1
 70
     0
  9
$DIMSD2
 70
     0
  9
$DIMTOLJ
 70
     1
  9
$DIMTZIN
 70
     0
  9
$DIMALTZ
 70
     0
  9
$DIMALTTZ
 70
     0
  9
$DIMUPT
 70
     0
  9
$DIMDEC
 70
     4
  9
$DIMTDEC
 70
     4
  9
$DIMALTU
 70
     2
  9
$DIMALTTD
 70
     2
  9
$DIMTXSTY
  7
Standard
  9
$DIMAUNIT
 70
     0
  9
$DIMADEC
 70
     0
  9
$DIMALTRND
 40
0.0
  9
$DIMAZIN
 70
     0
  9
$DIMDSEP
 70
    46
  9
$DIMATFIT
 70
     3
  9
$DIMFRAC
 70
     0
  9
$DIMLDRBLK
  1

  9
$DIMLUNIT
 70
     2
  9
$DIMLWD
 70
    -2
  9
$DIMLWE
 70
    -2
  9
$DIMTMOVE
 70
     2
  9
$LUNITS
 70
     2
  9
$LUPREC
 70
     3
  9
$SKETCHINC
 40
0.1
  9
$FILLETRAD
 40
0.5
  9
$AUNITS
 70
     0
  9
$AUPREC
 70
     0
  9
$MENU
  1
.
  9
$ELEVATION
 40
0.0
  9
$PELEVATION
 40
0.0
  9
$THICKNESS
 40
0.0
  9
$LIMCHECK
 70
     0
  9
$CHAMFERA
 40
0.5
  9
$CHAMFERB
 40
0.5
  9
$CHAMFERC
 40
1.0
  9
$CHAMFERD
 40
0.0
  9
$SKPOLY
 70
     0
  9
$TDCREATE
 40
2455675.40746456
  9
$TDUCREATE
 40
2455675.324131227
  9
$TDUPDATE
 40
2455675.407464572
  9
$TDUUPDATE
 40
2455675.324131238
  9
$TDINDWG
 40
0.0000000116
  9
$TDUSRTIMER
 40
0.0000000116
  9
$USRTIMER
 70
     1
  9
$ANGBASE
 50
0.0
  9
$ANGDIR
 70
     0
  9
$PDMODE
 70
     0
  9
$PDSIZE
 40
0.0
  9
$PLINEWID
 40
0.0
  9
$SPLFRAME
 70
     0
  9
$SPLINETYPE
 70
     6
  9
$SPLINESEGS
 70
     8
  9
$HANDSEED
  5
3DF
  9
$SURFTAB1
 70
     6
  9
$SURFTAB2
 70
     6
  9
$SURFTYPE
 70
     6
  9
$SURFU
 70
     6
  9
$SURFV
 70
     6
  9
$UCSBASE
  2

  9
$UCSNAME
  2

  9
$UCSORG
 10
0.0
 20
0.0
 30
0.0
  9
$UCSXDIR
 10
1.0
 20
0.0
 30
0.0
  9
$UCSYDIR
 10
0.0
 20
1.0
 30
0.0
  9
$UCSORTHOREF
  2

  9
$UCSORTHOVIEW
 70
     0
  9
$UCSORGTOP
 10
0.0
 20
0.0
 30
0.0
  9
$UCSORGBOTTOM
 10
0.0
 20
0.0
 30
0.0
  9
$UCSORGLEFT
 10
0.0
 20
0.0
 30
0.0
  9
$UCSORGRIGHT
 10
0.0
 20
0.0
 30
0.0
  9
$UCSORGFRONT
 10
0.0
 20
0.0
 30
0.0
  9
$UCSORGBACK
 10
0.0
 20
0.0
 30
0.0
  9
$PUCSBASE
  2

  9
$PUCSNAME
  2

  9
$PUCSORG
 10
0.0
 20
0.0
 30
0.0
  9
$PUCSXDIR
 10
1.0
 20
0.0
 30
0.0
  9
$PUCSYDIR
 10
0.0
 20
1.0
 30
0.0
  9
$PUCSORTHOREF
  2

  9
$PUCSORTHOVIEW
 70
     0
  9
$PUCSORGTOP
 10
0.0
 20
0.0
 30
0.0
  9
$PUCSORGBOTTOM
 10
0.0
 20
0.0
 30
0.0
  9
$PUCSORGLEFT
 10
0.0
 20
0.0
 30
0.0
  9
$PUCSORGRIGHT
 10
0.0
 20
0.0
 30
0.0
  9
$PUCSORGFRONT
 10
0.0
 20
0.0
 30
0.0
  9
$PUCSORGBACK
 10
0.0
 20
0.0
 30
0.0
  9
$USERI1
 70
     0
  9
$USERI2
 70
     0
  9
$USERI3
 70
     0
  9
$USERI4
 70
     0
  9
$USERI5
 70
     0
  9
$USERR1
 40
0.0
  9
$USERR2
 40
0.0
  9
$USERR3
 40
0.0
  9
$USERR4
 40
0.0
  9
$USERR5
 40
0.0
  9
$WORLDVIEW
 70
     1
  9
$SHADEDGE
 70
     3
  9
$SHADEDIF
 70
    70
  9
$TILEMODE
 70
     1
  9
$MAXACTVP
 70
    64
  9
$PINSBASE
 10
0.0
 20
0.0
 30
0.0
  9
$PLIMCHECK
 70
     0
  9
$PEXTMIN
 10
1.000000000000000E+20
 20
1.000000000000000E+20
 30
1.000000000000000E+20
  9
$PEXTMAX
 10
-1.000000000000000E+20
 20
-1.000000000000000E+20
 30
-1.000000000000000E+20
  9
$PLIMMIN
 10
0.0
 20
0.0
  9
$PLIMMAX
 10
12.0
 20
9.0
  9
$UNITMODE
 70
     0
  9
$VISRETAIN
 70
     1
  9
$PLINEGEN
 70
     0
  9
$PSLTSCALE
 70
     1
  9
$TREEDEPTH
 70
  3020
  9
$CMLSTYLE
  2
Standard
  9
$CMLJUST
 70
     0
  9
$CMLSCALE
 40
1.0
  9
$PROXYGRAPHICS
 70
     1
  9
$MEASUREMENT
 70
     0
  9
$CELWEIGHT
370
    -1
  9
$ENDCAPS
280
     0
  9
$JOINSTYLE
280
     0
  9
$LWDISPLAY
290
     0
  9
$INSUNITS
 70
     4
  9
$HYPERLINKBASE
  1

  9
$STYLESHEET
  1

  9
$XEDIT
290
     1
  9
$CEPSNTYPE
380
     0
  9
$PSTYLEMODE
290
     1
  9
$FINGERPRINTGUID
  2
{9CF86A76-9586-42FA-8FC0-229B774CD06A}
  9
$VERSIONGUID
  2
{FAEB1C32-E019-11D5-929B-00C0DF256EC4}
  9
$EXTNAMES
290
     1
  9
$PSVPSCALE
 40
0.0
  9
$OLESTARTUP
290
     0
  9
$SORTENTS
280
   127
  9
$INDEXCTL
280
     0
  9
$HIDETEXT
280
     1
  9
$XCLIPFRAME
290
     0
  9
$HALOGAP
280
     0
  9
$OBSCOLOR
 70
   257
  9
$OBSLTYPE
280
     0
  9
$INTERSECTIONDISPLAY
280
     0
  9
$INTERSECTIONCOLOR
 70
   257
  9
$DIMASSOC
280
     2
  9
$PROJECTNAME
  1

  0
ENDSEC
  0
SECTION
  2
CLASSES
  0
CLASS
  1
ACDBDICTIONARYWDFLT
  2
AcDbDictionaryWithDefault
  3
ObjectDBX Classes
 90
        0
 91
        4
280
     0
281
     0
  0
CLASS
  1
VISUALSTYLE
  2
AcDbVisualStyle
  3
ObjectDBX Classes
 90
     4095
 91
        4
280
     0
281
     0
  0
CLASS
  1
SCALE
  2
AcDbScale
  3
ObjectDBX Classes
 90
     1153
 91
        4
280
     0
281
     0
  0
CLASS
  1
DICTIONARYVAR
  2
AcDbDictionaryVar
  3
ObjectDBX Classes
 90
        0
 91
        4
280
     0
281
     0
  0
ENDSEC
  0
SECTION
  2
TABLES
  0
TABLE
  2
VPORT
  5
8
330
0
100
AcDbSymbolTable
 70
     1
  0
VPORT
  5
29
330
8
100
AcDbSymbolTableRecord
100
AcDbViewportTableRecord
  2
*Active
 70
     0
 10
0.0
 20
0.0
 11
1.0
 21
1.0
 12
73.0
 22
0.33061246377261
 13
0.0
 23
0.0
 14
0.5
 24
0.5
 15
0.5
 25
0.5
 16
0.0
 26
0.0
 36
1.0
 17
0.0
 27
0.0
 37
0.0
 40
147.5544494260961
 41
2.101461536443238
 42
50.0
 43
0.0
 44
0.0
 50
0.0
 51
0.0
 71
     0
 72
   100
 73
     1
 74
     3
 75
     0
 76
     0
 77
     0
 78
     0
281
     0
 65
     1
110
0.0
120
0.0
130
0.0
111
1.0
121
0.0
131
0.0
112
0.0
122
1.0
132
0.0
 79
     0
146
0.0
  0
ENDTAB
  0
TABLE
  2
LTYPE
  5
5
330
0
100
AcDbSymbolTable
 70
     1
  0
LTYPE
  5
14
330
5
100
AcDbSymbolTableRecord
100
AcDbLinetypeTableRecord
  2
ByBlock
 70
     0
  3

 72
    65
 73
     0
 40
0.0
  0
LTYPE
  5
15
330
5
100
AcDbSymbolTableRecord
100
AcDbLinetypeTableRecord
  2
ByLayer
 70
     0
  3

 72
    65
 73
     0
 40
0.0
  0
LTYPE
  5
16
330
5
100
AcDbSymbolTableRecord
100
AcDbLinetypeTableRecord
  2
Continuous
 70
     0
  3
Solid line
 72
    65
 73
     0
 40
0.0
  0
ENDTAB
  0
TABLE
  2
LAYER
  5
2
330
0
100
AcDbSymbolTable
 70
     4
  0
LAYER
  5
10
330
2
100
AcDbSymbolTableRecord
100
AcDbLayerTableRecord
  2
0
 70
     0
 62
     7
  6
Continuous
370
    -3
390
F
  0
LAYER
  5
3B
330
2
100
AcDbSymbolTableRecord
100
AcDbLayerTableRecord
  2
Default
 70
     0
 62
     7
  6
Continuous
370
    25
390
F
  0
LAYER
  5
5F
330
2
100
AcDbSymbolTableRecord
100
AcDbLayerTableRecord
  2
Layer 01
 70
     0
 62
     1
  6
Continuous
370
    13
390
F
  0
LAYER
  5
118
330
2
100
AcDbSymbolTableRecord
100
AcDbLayerTableRecord
  2
Layer 02
 70
     0
 62
   192
  6
Continuous
370
    -3
390
F
  0
ENDTAB
  0
TABLE
  2
STYLE
  5
3
330
0
100
AcDbSymbolTable
 70
     1
  0
STYLE
  5
11
330
3
100
AcDbSymbolTableRecord
100
AcDbTextStyleTableRecord
  2
Standard
 70
     0
 40
0.0
 41
1.0
 50
0.0
 71
     0
 42
0.2
  3
txt
  4

  0
ENDTAB
  0
TABLE
  2
VIEW
  5
6
330
0
100
AcDbSymbolTable
 70
     0
  0
ENDTAB
  0
TABLE
  2
UCS
  5
7
330
0
100
AcDbSymbolTable
 70
     0
  0
ENDTAB
  0
TABLE
  2
APPID
  5
9
330
0
100
AcDbSymbolTable
 70
     1
  0
APPID
  5
12
330
9
100
AcDbSymbolTableRecord
100
AcDbRegAppTableRecord
  2
ACAD
 70
     0
  0
ENDTAB
  0
TABLE
  2
DIMSTYLE
  5
A
330
0
100
AcDbSymbolTable
 70
     1
100
AcDbDimStyleTable
  0
DIMSTYLE
105
27
330
A
100
AcDbSymbolTableRecord
100
AcDbDimStyleTableRecord
  2
Standard
 70
     0
340
11
  0
ENDTAB
  0
TABLE
  2
BLOCK_RECORD
  5
1
330
0
100
AcDbSymbolTable
 70
     1
  0
BLOCK_RECORD
  5
1F
330
1
100
AcDbSymbolTableRecord
100
AcDbBlockTableRecord
  2
*Model_Space
340
22
  0
BLOCK_RECORD
  5
1B
330
1
100
AcDbSymbolTableRecord
100
AcDbBlockTableRecord
  2
*Paper_Space
340
1E
  0
BLOCK_RECORD
  5
23
330
1
100
AcDbSymbolTableRecord
100
AcDbBlockTableRecord
  2
*Paper_Space0
340
26
  0
ENDTAB
  0
ENDSEC
  0
SECTION
  2
BLOCKS
  0
BLOCK
  5
20
330
1F
100
AcDbEntity
  8
0
100
AcDbBlockBegin
  2
*Model_Space
 70
     0
 10
0.0
 20
0.0
 30
0.0
  3
*Model_Space
  1

  0
ENDBLK
  5
21
330
1F
100
AcDbEntity
  8
0
100
AcDbBlockEnd
  0
BLOCK
  5
1C
330
1B
100
AcDbEntity
 67
     1
  8
0
100
AcDbBlockBegin
  2
*Paper_Space
 70
     0
 10
0.0
 20
0.0
 30
0.0
  3
*Paper_Space
  1

  0
ENDBLK
  5
1D
330
1B
100
AcDbEntity
 67
     1
  8
0
100
AcDbBlockEnd
  0
BLOCK
  5
24
330
23
100
AcDbEntity
  8
0
100
AcDbBlockBegin
  2
*Paper_Space0
 70
     0
 10
0.0
 20
0.0
 30
0.0
  3
*Paper_Space0
  1

  0
ENDBLK
  5
25
330
23
100
AcDbEntity
  8
0
100
AcDbBlockEnd
  0
ENDSEC
  0
SECTION
  2
ENTITIES
  0
MTEXT
  5
3C
330
1F
100
AcDbEntity
  8
Default
100
AcDbMText
 10
105.0
 20
5.0
 30
0.0
 40
2.0
 41
26.0
 71
     7
 72
     1
  1
\fArial;Maeko v1.5\PA3 templates\PBill Ola Rasmussen
 73
     2
 44
0.9638554216867471
  0
LINE
  5
60
330
1F
100
AcDbEntity
  8
Layer 01
100
AcDbLine
 10
59.0
 20
-28.0
 30
0.0
 11
99.0
 21
-28.0
 31
0.0
  0
LINE
  5
61
330
1F
100
AcDbEntity
  8
Layer 01
100
AcDbLine
 10
59.0
 20
-27.0
 30
0.0
 11
99.0
 21
-27.0
 31
0.0
  0
LINE
  5
62
330
1F
100
AcDbEntity
  8
Layer 01
100
AcDbLine
 10
59.0
 20
-23.0
 30
0.0
 11
99.0
 21
-23.0
 31
0.0
  0
LINE
  5
63
330
1F
100
AcDbEntity
  8
Layer 01
100
AcDbLine
 10
59.0
 20
-20.0
 30
0.0
 11
99.0
 21
-20.0
 31
0.0
  0
LINE
  5
64
330
1F
100
AcDbEntity
  8
Layer 01
100
AcDbLine
 10
59.0
 20
-19.0
 30
0.0
 11
99.0
 21
-19.0
 31
0.0
  0
LINE
  5
65
330
1F
100
AcDbEntity
  8
Layer 01
100
AcDbLine
 10
59.0
 20
-18.0
 30
0.0
 11
99.0
 21
-18.0
 31
0.0
  0
LINE
  5
66
330
1F
100
AcDbEntity
  8
Layer 01
100
AcDbLine
 10
59.0
 20
-15.0
 30
0.0
 11
99.0
 21
-15.0
 31
0.0
  0
LINE
  5
67
330
1F
100
AcDbEntity
  8
Layer 01
100
AcDbLine
 10
59.0
 20
-12.0
 30
0.0
 11
99.0
 21
-12.0
 31
0.0
  0
LINE
  5
68
330
1F
100
AcDbEntity
  8
Layer 01
100
AcDbLine
 10
59.0
 20
-9.0
 30
0.0
 11
99.0
 21
-9.0
 31
0.0
  0
LINE
  5
69
330
1F
100
AcDbEntity
  8
Layer 01
100
AcDbLine
 10
59.0
 20
-6.0
 30
0.0
 11
99.0
 21
-6.0
 31
0.0
  0
LINE
  5
6A
330
1F
100
AcDbEntity
  8
Layer 01
100
AcDbLine
 10
59.0
 20
-2.0
 30
0.0
 11
99.0
 21
-2.0
 31
0.0
  0
LINE
  5
6B
330
1F
100
AcDbEntity
  8
Layer 01
100
AcDbLine
 10
59.0
 20
1.0
 30
0.0
 11
99.0
 21
1.0
 31
0.0
  0
LINE
  5
6C
330
1F
100
AcDbEntity
  8
Layer 01
100
AcDbLine
 10
59.0
 20
4.0
 30
0.0
 11
99.0
 21
4.0
 31
0.0
  0
LINE
  5
6D
330
1F
100
AcDbEntity
  8
Layer 01
100
AcDbLine
 10
59.0
 20
7.0
 30
0.0
 11
99.0
 21
7.0
 31
0.0
  0
LINE
  5
6E
330
1F
100
AcDbEntity
  8
Layer 01
100
AcDbLine
 10
59.0
 20
10.0
 30
0.0
 11
99.0
 21
10.0
 31
0.0
  0
LINE
  5
6F
330
1F
100
AcDbEntity
  8
Layer 01
100
AcDbLine
 10
59.0
 20
12.0
 30
0.0
 11
99.0
 21
12.0
 31
0.0
  0
LINE
  5
70
330
1F
100
AcDbEntity
  8
Layer 01
100
AcDbLine
 10
59.0
 20
-26.0
 30
0.0
 11
99.0
 21
-26.0
 31
0.0
  0
LINE
  5
71
330
1F
100
AcDbEntity
  8
Layer 01
100
AcDbLine
 10
59.0
 20
-24.0
 30
0.0
 11
99.0
 21
-24.0
 31
0.0
  0
LINE
  5
72
330
1F
100
AcDbEntity
  8
Layer 01
100
AcDbLine
 10
59.0
 20
-25.0
 30
0.0
 11
99.0
 21
-25.0
 31
0.0
  0
LINE
  5
73
330
1F
100
AcDbEntity
  8
Layer 01
100
AcDbLine
 10
59.0
 20
-16.0
 30
0.0
 11
99.0
 21
-16.0
 31
0.0
  0
LINE
  5
74
330
1F
100
AcDbEntity
  8
Layer 01
100
AcDbLine
 10
59.0
 20
-13.0
 30
0.0
 11
99.0
 21
-13.0
 31
0.0
  0
LINE
  5
75
330
1F
100
AcDbEntity
  8
Layer 01
100
AcDbLine
 10
59.0
 20
-10.0
 30
0.0
 11
99.0
 21
-10.0
 31
0.0
  0
LINE
  5
76
330
1F
100
AcDbEntity
  8
Layer 01
100
AcDbLine
 10
59.0
 20
-7.0
 30
0.0
 11
99.0
 21
-7.0
 31
0.0
  0
LINE
  5
77
330
1F
100
AcDbEntity
  8
Layer 01
100
AcDbLine
 10
59.0
 20
-22.0
 30
0.0
 11
99.0
 21
-22.0
 31
0.0
  0
LINE
  5
78
330
1F
100
AcDbEntity
  8
Layer 01
100
AcDbLine
 10
59.0
 20
-3.0
 30
0.0
 11
99.0
 21
-3.0
 31
0.0
  0
LINE
  5
79
330
1F
100
AcDbEntity
  8
Layer 01
100
AcDbLine
 10
59.0
 20
0.0
 30
0.0
 11
99.0
 21
0.0
 31
0.0
  0
LINE
  5
7A
330
1F
100
AcDbEntity
  8
Layer 01
100
AcDbLine
 10
59.0
 20
3.0
 30
0.0
 11
99.0
 21
3.0
 31
0.0
  0
LINE
  5
7B
330
1F
100
AcDbEntity
  8
Layer 01
100
AcDbLine
 10
59.0
 20
6.0
 30
0.0
 11
99.0
 21
6.0
 31
0.0
  0
LINE
  5
7C
330
1F
100
AcDbEntity
  8
Layer 01
100
AcDbLine
 10
59.0
 20
9.0
 30
0.0
 11
99.0
 21
9.0
 31
0.0
  0
LINE
  5
7D
330
1F
100
AcDbEntity
  8
Layer 01
100
AcDbLine
 10
59.0
 20
-34.0
 30
0.0
 11
99.0
 21
-34.0
 31
0.0
  0
LINE
  5
7E
330
1F
100
AcDbEntity
  8
Layer 01
100
AcDbLine
 10
59.0
 20
13.0
 30
0.0
 11
99.0
 21
13.0
 31
0.0
  0
LINE
  5
7F
330
1F
100
AcDbEntity
  8
Layer 01
100
AcDbLine
 10
59.0
 20
-37.0
 30
0.0
 11
99.0
 21
-37.0
 31
0.0
  0
LINE
  5
80
330
1F
100
AcDbEntity
  8
Layer 01
100
AcDbLine
 10
59.0
 20
-35.0
 30
0.0
 11
99.0
 21
-35.0
 31
0.0
  0
LINE
  5
81
330
1F
100
AcDbEntity
  8
Layer 01
100
AcDbLine
 10
86.0
 20
13.0
 30
0.0
 11
86.0
 21
-37.0
 31
0.0
  0
LINE
  5
82
330
1F
100
AcDbEntity
  8
Layer 01
100
AcDbLine
 10
59.0
 20
-36.0
 30
0.0
 11
99.0
 21
-36.0
 31
0.0
  0
LINE
  5
83
330
1F
100
AcDbEntity
  8
Layer 01
100
AcDbLine
 10
59.0
 20
-33.0
 30
0.0
 11
99.0
 21
-33.0
 31
0.0
  0
LINE
  5
84
330
1F
100
AcDbEntity
  8
Layer 01
100
AcDbLine
 10
59.0
 20
-32.0
 30
0.0
 11
99.0
 21
-32.0
 31
0.0
  0
LINE
  5
85
330
1F
100
AcDbEntity
  8
Layer 01
100
AcDbLine
 10
59.0
 20
-31.0
 30
0.0
 11
99.0
 21
-31.0
 31
0.0
  0
LINE
  5
86
330
1F
100
AcDbEntity
  8
Layer 01
100
AcDbLine
 10
59.0
 20
-30.0
 30
0.0
 11
99.0
 21
-30.0
 31
0.0
  0
LINE
  5
87
330
1F
100
AcDbEntity
  8
Layer 01
100
AcDbLine
 10
59.0
 20
-29.0
 30
0.0
 11
99.0
 21
-29.0
 31
0.0
  0
LINE
  5
88
330
1F
100
AcDbEntity
  8
Layer 01
100
AcDbLine
 10
98.0
 20
13.0
 30
0.0
 11
98.0
 21
-37.0
 31
0.0
  0
LINE
  5
89
330
1F
100
AcDbEntity
  8
Layer 01
100
AcDbLine
 10
99.0
 20
13.0
 30
0.0
 11
99.0
 21
-37.0
 31
0.0
  0
LINE
  5
8A
330
1F
100
AcDbEntity
  8
Layer 01
100
AcDbLine
 10
71.0
 20
13.0
 30
0.0
 11
71.0
 21
-37.0
 31
0.0
  0
LINE
  5
8B
330
1F
100
AcDbEntity
  8
Layer 01
100
AcDbLine
 10
67.0
 20
13.0
 30
0.0
 11
67.0
 21
-37.0
 31
0.0
  0
LINE
  5
8C
330
1F
100
AcDbEntity
  8
Layer 01
100
AcDbLine
 10
64.0
 20
13.0
 30
0.0
 11
64.0
 21
-37.0
 31
0.0
  0
LINE
  5
8D
330
1F
100
AcDbEntity
  8
Layer 01
100
AcDbLine
 10
61.0
 20
13.0
 30
0.0
 11
61.0
 21
-37.0
 31
0.0
  0
LINE
  5
8E
330
1F
100
AcDbEntity
  8
Layer 01
100
AcDbLine
 10
60.0
 20
13.0
 30
0.0
 11
60.0
 21
-37.0
 31
0.0
  0
LINE
  5
8F
330
1F
100
AcDbEntity
  8
Layer 01
100
AcDbLine
 10
59.0
 20
-5.0
 30
0.0
 11
99.0
 21
-5.0
 31
0.0
  0
LINE
  5
90
330
1F
100
AcDbEntity
  8
Layer 01
100
AcDbLine
 10
59.0
 20
13.0
 30
0.0
 11
59.0
 21
-37.0
 31
0.0
  0
LINE
  5
91
330
1F
100
AcDbEntity
  8
Layer 01
100
AcDbLine
 10
97.0
 20
13.0
 30
0.0
 11
97.0
 21
-37.0
 31
0.0
  0
LINE
  5
92
330
1F
100
AcDbEntity
  8
Layer 01
100
AcDbLine
 10
96.0
 20
13.0
 30
0.0
 11
96.0
 21
-37.0
 31
0.0
  0
LINE
  5
93
330
1F
100
AcDbEntity
  8
Layer 01
100
AcDbLine
 10
92.0
 20
13.0
 30
0.0
 11
92.0
 21
-37.0
 31
0.0
  0
LINE
  5
94
330
1F
100
AcDbEntity
  8
Layer 01
100
AcDbLine
 10
91.0
 20
13.0
 30
0.0
 11
91.0
 21
-37.0
 31
0.0
  0
LINE
  5
95
330
1F
100
AcDbEntity
  8
Layer 01
100
AcDbLine
 10
90.0
 20
13.0
 30
0.0
 11
90.0
 21
-37.0
 31
0.0
  0
LINE
  5
96
330
1F
100
AcDbEntity
  8
Layer 01
100
AcDbLine
 10
89.0
 20
13.0
 30
0.0
 11
89.0
 21
-37.0
 31
0.0
  0
LINE
  5
97
330
1F
100
AcDbEntity
  8
Layer 01
100
AcDbLine
 10
88.0
 20
13.0
 30
0.0
 11
88.0
 21
-37.0
 31
0.0
  0
LINE
  5
98
330
1F
100
AcDbEntity
  8
Layer 01
100
AcDbLine
 10
87.0
 20
13.0
 30
0.0
 11
87.0
 21
-37.0
 31
0.0
  0
LINE
  5
99
330
1F
100
AcDbEntity
  8
Layer 01
100
AcDbLine
 10
59.0
 20
8.0
 30
0.0
 11
99.0
 21
8.0
 31
0.0
  0
LINE
  5
9A
330
1F
100
AcDbEntity
  8
Layer 01
100
AcDbLine
 10
77.0
 20
13.0
 30
0.0
 11
77.0
 21
-37.0
 31
0.0
  0
LINE
  5
9B
330
1F
100
AcDbEntity
  8
Layer 01
100
AcDbLine
 10
70.0
 20
13.0
 30
0.0
 11
70.0
 21
-37.0
 31
0.0
  0
LINE
  5
9C
330
1F
100
AcDbEntity
  8
Layer 01
100
AcDbLine
 10
59.0
 20
2.0
 30
0.0
 11
99.0
 21
2.0
 31
0.0
  0
LINE
  5
9D
330
1F
100
AcDbEntity
  8
Layer 01
100
AcDbLine
 10
68.0
 20
13.0
 30
0.0
 11
68.0
 21
-37.0
 31
0.0
  0
LINE
  5
9E
330
1F
100
AcDbEntity
  8
Layer 01
100
AcDbLine
 10
65.0
 20
13.0
 30
0.0
 11
65.0
 21
-37.0
 31
0.0
  0
LINE
  5
9F
330
1F
100
AcDbEntity
  8
Layer 01
100
AcDbLine
 10
62.0
 20
13.0
 30
0.0
 11
62.0
 21
-37.0
 31
0.0
  0
LINE
  5
A0
330
1F
100
AcDbEntity
  8
Layer 01
100
AcDbLine
 10
59.0
 20
-21.0
 30
0.0
 11
99.0
 21
-21.0
 31
0.0
  0
LINE
  5
A1
330
1F
100
AcDbEntity
  8
Layer 01
100
AcDbLine
 10
59.0
 20
-17.0
 30
0.0
 11
99.0
 21
-17.0
 31
0.0
  0
LINE
  5
A2
330
1F
100
AcDbEntity
  8
Layer 01
100
AcDbLine
 10
59.0
 20
-14.0
 30
0.0
 11
99.0
 21
-14.0
 31
0.0
  0
LINE
  5
A3
330
1F
100
AcDbEntity
  8
Layer 01
100
AcDbLine
 10
59.0
 20
-11.0
 30
0.0
 11
99.0
 21
-11.0
 31
0.0
  0
LINE
  5
A4
330
1F
100
AcDbEntity
  8
Layer 01
100
AcDbLine
 10
59.0
 20
-8.0
 30
0.0
 11
99.0
 21
-8.0
 31
0.0
  0
LINE
  5
A5
330
1F
100
AcDbEntity
  8
Layer 01
100
AcDbLine
 10
59.0
 20
11.0
 30
0.0
 11
99.0
 21
11.0
 31
0.0
  0
LINE
  5
A6
330
1F
100
AcDbEntity
  8
Layer 01
100
AcDbLine
 10
78.0
 20
13.0
 30
0.0
 11
78.0
 21
-37.0
 31
0.0
  0
LINE
  5
A7
330
1F
100
AcDbEntity
  8
Layer 01
100
AcDbLine
 10
76.0
 20
13.0
 30
0.0
 11
76.0
 21
-37.0
 31
0.0
  0
LINE
  5
A8
330
1F
100
AcDbEntity
  8
Layer 01
100
AcDbLine
 10
75.0
 20
13.0
 30
0.0
 11
75.0
 21
-37.0
 31
0.0
  0
LINE
  5
A9
330
1F
100
AcDbEntity
  8
Layer 01
100
AcDbLine
 10
74.0
 20
13.0
 30
0.0
 11
74.0
 21
-37.0
 31
0.0
  0
LINE
  5
AA
330
1F
100
AcDbEntity
  8
Layer 01
100
AcDbLine
 10
73.0
 20
13.0
 30
0.0
 11
73.0
 21
-37.0
 31
0.0
  0
LINE
  5
AB
330
1F
100
AcDbEntity
  8
Layer 01
100
AcDbLine
 10
72.0
 20
13.0
 30
0.0
 11
72.0
 21
-37.0
 31
0.0
  0
LINE
  5
AC
330
1F
100
AcDbEntity
  8
Layer 01
100
AcDbLine
 10
69.0
 20
13.0
 30
0.0
 11
69.0
 21
-37.0
 31
0.0
  0
LINE
  5
AD
330
1F
100
AcDbEntity
  8
Layer 01
100
AcDbLine
 10
66.0
 20
13.0
 30
0.0
 11
66.0
 21
-37.0
 31
0.0
  0
LINE
  5
AE
330
1F
100
AcDbEntity
  8
Layer 01
100
AcDbLine
 10
63.0
 20
13.0
 30
0.0
 11
63.0
 21
-37.0
 31
0.0
  0
LINE
  5
AF
330
1F
100
AcDbEntity
  8
Layer 01
100
AcDbLine
 10
95.0
 20
13.0
 30
0.0
 11
95.0
 21
-37.0
 31
0.0
  0
LINE
  5
B0
330
1F
100
AcDbEntity
  8
Layer 01
100
AcDbLine
 10
94.0
 20
13.0
 30
0.0
 11
94.0
 21
-37.0
 31
0.0
  0
LINE
  5
B1
330
1F
100
AcDbEntity
  8
Layer 01
100
AcDbLine
 10
79.0
 20
13.0
 30
0.0
 11
79.0
 21
-37.0
 31
0.0
  0
LINE
  5
B2
330
1F
100
AcDbEntity
  8
Layer 01
100
AcDbLine
 10
85.0
 20
13.0
 30
0.0
 11
85.0
 21
-37.0
 31
0.0
  0
LINE
  5
B3
330
1F
100
AcDbEntity
  8
Layer 01
100
AcDbLine
 10
59.0
 20
-4.0
 30
0.0
 11
99.0
 21
-4.0
 31
0.0
  0
LINE
  5
B4
330
1F
100
AcDbEntity
  8
Layer 01
100
AcDbLine
 10
84.0
 20
13.0
 30
0.0
 11
84.0
 21
-37.0
 31
0.0
  0
LINE
  5
B5
330
1F
100
AcDbEntity
  8
Layer 01
100
AcDbLine
 10
83.0
 20
13.0
 30
0.0
 11
83.0
 21
-37.0
 31
0.0
  0
LINE
  5
B6
330
1F
100
AcDbEntity
  8
Layer 01
100
AcDbLine
 10
82.0
 20
13.0
 30
0.0
 11
82.0
 21
-37.0
 31
0.0
  0
LINE
  5
B7
330
1F
100
AcDbEntity
  8
Layer 01
100
AcDbLine
 10
81.0
 20
13.0
 30
0.0
 11
81.0
 21
-37.0
 31
0.0
  0
LINE
  5
B8
330
1F
100
AcDbEntity
  8
Layer 01
100
AcDbLine
 10
80.0
 20
13.0
 30
0.0
 11
80.0
 21
-37.0
 31
0.0
  0
LINE
  5
B9
330
1F
100
AcDbEntity
  8
Layer 01
100
AcDbLine
 10
59.0
 20
5.0
 30
0.0
 11
99.0
 21
5.0
 31
0.0
  0
LINE
  5
BA
330
1F
100
AcDbEntity
  8
Layer 01
100
AcDbLine
 10
93.0
 20
13.0
 30
0.0
 11
93.0
 21
-37.0
 31
0.0
  0
LINE
  5
BB
330
1F
100
AcDbEntity
  8
Layer 01
100
AcDbLine
 10
59.0
 20
-1.0
 30
0.0
 11
99.0
 21
-1.0
 31
0.0
  0
LINE
  5
BC
330
1F
100
AcDbEntity
  8
Layer 01
100
AcDbLine
 10
45.0
 20
-58.0
 30
0.0
 11
85.0
 21
-58.0
 31
0.0
  0
LINE
  5
BD
330
1F
100
AcDbEntity
  8
Layer 01
100
AcDbLine
 10
45.0
 20
-55.0
 30
0.0
 11
85.0
 21
-55.0
 31
0.0
  0
LINE
  5
BE
330
1F
100
AcDbEntity
  8
Layer 01
100
AcDbLine
 10
45.0
 20
-54.0
 30
0.0
 11
85.0
 21
-54.0
 31
0.0
  0
LINE
  5
BF
330
1F
100
AcDbEntity
  8
Layer 01
100
AcDbLine
 10
45.0
 20
-53.0
 30
0.0
 11
85.0
 21
-53.0
 31
0.0
  0
LINE
  5
C0
330
1F
100
AcDbEntity
  8
Layer 01
100
AcDbLine
 10
45.0
 20
-50.0
 30
0.0
 11
85.0
 21
-50.0
 31
0.0
  0
LINE
  5
C1
330
1F
100
AcDbEntity
  8
Layer 01
100
AcDbLine
 10
45.0
 20
-47.0
 30
0.0
 11
85.0
 21
-47.0
 31
0.0
  0
LINE
  5
C2
330
1F
100
AcDbEntity
  8
Layer 01
100
AcDbLine
 10
45.0
 20
-44.0
 30
0.0
 11
85.0
 21
-44.0
 31
0.0
  0
LINE
  5
C3
330
1F
100
AcDbEntity
  8
Layer 01
100
AcDbLine
 10
45.0
 20
-41.0
 30
0.0
 11
85.0
 21
-41.0
 31
0.0
  0
LINE
  5
C4
330
1F
100
AcDbEntity
  8
Layer 01
100
AcDbLine
 10
45.0
 20
-37.0
 30
0.0
 11
85.0
 21
-37.0
 31
0.0
  0
LINE
  5
C5
330
1F
100
AcDbEntity
  8
Layer 01
100
AcDbLine
 10
45.0
 20
-34.0
 30
0.0
 11
85.0
 21
-34.0
 31
0.0
  0
LINE
  5
C6
330
1F
100
AcDbEntity
  8
Layer 01
100
AcDbLine
 10
45.0
 20
-31.0
 30
0.0
 11
85.0
 21
-31.0
 31
0.0
  0
LINE
  5
C7
330
1F
100
AcDbEntity
  8
Layer 01
100
AcDbLine
 10
45.0
 20
-28.0
 30
0.0
 11
85.0
 21
-28.0
 31
0.0
  0
LINE
  5
C8
330
1F
100
AcDbEntity
  8
Layer 01
100
AcDbLine
 10
45.0
 20
-25.0
 30
0.0
 11
85.0
 21
-25.0
 31
0.0
  0
LINE
  5
C9
330
1F
100
AcDbEntity
  8
Layer 01
100
AcDbLine
 10
45.0
 20
-23.0
 30
0.0
 11
85.0
 21
-23.0
 31
0.0
  0
LINE
  5
CA
330
1F
100
AcDbEntity
  8
Layer 01
100
AcDbLine
 10
45.0
 20
-61.0
 30
0.0
 11
85.0
 21
-61.0
 31
0.0
  0
LINE
  5
CB
330
1F
100
AcDbEntity
  8
Layer 01
100
AcDbLine
 10
45.0
 20
-59.0
 30
0.0
 11
85.0
 21
-59.0
 31
0.0
  0
LINE
  5
CC
330
1F
100
AcDbEntity
  8
Layer 01
100
AcDbLine
 10
45.0
 20
-60.0
 30
0.0
 11
85.0
 21
-60.0
 31
0.0
  0
LINE
  5
CD
330
1F
100
AcDbEntity
  8
Layer 01
100
AcDbLine
 10
45.0
 20
-51.0
 30
0.0
 11
85.0
 21
-51.0
 31
0.0
  0
LINE
  5
CE
330
1F
100
AcDbEntity
  8
Layer 01
100
AcDbLine
 10
45.0
 20
-48.0
 30
0.0
 11
85.0
 21
-48.0
 31
0.0
  0
LINE
  5
CF
330
1F
100
AcDbEntity
  8
Layer 01
100
AcDbLine
 10
45.0
 20
-45.0
 30
0.0
 11
85.0
 21
-45.0
 31
0.0
  0
LINE
  5
D0
330
1F
100
AcDbEntity
  8
Layer 01
100
AcDbLine
 10
45.0
 20
-42.0
 30
0.0
 11
85.0
 21
-42.0
 31
0.0
  0
LINE
  5
D1
330
1F
100
AcDbEntity
  8
Layer 01
100
AcDbLine
 10
45.0
 20
-57.0
 30
0.0
 11
85.0
 21
-57.0
 31
0.0
  0
LINE
  5
D2
330
1F
100
AcDbEntity
  8
Layer 01
100
AcDbLine
 10
45.0
 20
-38.0
 30
0.0
 11
85.0
 21
-38.0
 31
0.0
  0
LINE
  5
D3
330
1F
100
AcDbEntity
  8
Layer 01
100
AcDbLine
 10
45.0
 20
-35.0
 30
0.0
 11
85.0
 21
-35.0
 31
0.0
  0
LINE
  5
D4
330
1F
100
AcDbEntity
  8
Layer 01
100
AcDbLine
 10
45.0
 20
-32.0
 30
0.0
 11
85.0
 21
-32.0
 31
0.0
  0
LINE
  5
D5
330
1F
100
AcDbEntity
  8
Layer 01
100
AcDbLine
 10
45.0
 20
-29.0
 30
0.0
 11
85.0
 21
-29.0
 31
0.0
  0
LINE
  5
D6
330
1F
100
AcDbEntity
  8
Layer 01
100
AcDbLine
 10
45.0
 20
-26.0
 30
0.0
 11
85.0
 21
-26.0
 31
0.0
  0
LINE
  5
D7
330
1F
100
AcDbEntity
  8
Layer 01
100
AcDbLine
 10
48.0
 20
-22.0
 30
0.0
 11
48.0
 21
-72.0
 31
0.0
  0
LINE
  5
D8
330
1F
100
AcDbEntity
  8
Layer 01
100
AcDbLine
 10
45.0
 20
-56.0
 30
0.0
 11
85.0
 21
-56.0
 31
0.0
  0
LINE
  5
D9
330
1F
100
AcDbEntity
  8
Layer 01
100
AcDbLine
 10
45.0
 20
-52.0
 30
0.0
 11
85.0
 21
-52.0
 31
0.0
  0
LINE
  5
DA
330
1F
100
AcDbEntity
  8
Layer 01
100
AcDbLine
 10
45.0
 20
-49.0
 30
0.0
 11
85.0
 21
-49.0
 31
0.0
  0
LINE
  5
DB
330
1F
100
AcDbEntity
  8
Layer 01
100
AcDbLine
 10
45.0
 20
-46.0
 30
0.0
 11
85.0
 21
-46.0
 31
0.0
  0
LINE
  5
DC
330
1F
100
AcDbEntity
  8
Layer 01
100
AcDbLine
 10
45.0
 20
-43.0
 30
0.0
 11
85.0
 21
-43.0
 31
0.0
  0
LINE
  5
DD
330
1F
100
AcDbEntity
  8
Layer 01
100
AcDbLine
 10
45.0
 20
-40.0
 30
0.0
 11
85.0
 21
-40.0
 31
0.0
  0
LINE
  5
DE
330
1F
100
AcDbEntity
  8
Layer 01
100
AcDbLine
 10
45.0
 20
-39.0
 30
0.0
 11
85.0
 21
-39.0
 31
0.0
  0
LINE
  5
DF
330
1F
100
AcDbEntity
  8
Layer 01
100
AcDbLine
 10
45.0
 20
-36.0
 30
0.0
 11
85.0
 21
-36.0
 31
0.0
  0
LINE
  5
E0
330
1F
100
AcDbEntity
  8
Layer 01
100
AcDbLine
 10
45.0
 20
-33.0
 30
0.0
 11
85.0
 21
-33.0
 31
0.0
  0
LINE
  5
E1
330
1F
100
AcDbEntity
  8
Layer 01
100
AcDbLine
 10
45.0
 20
-30.0
 30
0.0
 11
85.0
 21
-30.0
 31
0.0
  0
LINE
  5
E2
330
1F
100
AcDbEntity
  8
Layer 01
100
AcDbLine
 10
45.0
 20
-27.0
 30
0.0
 11
85.0
 21
-27.0
 31
0.0
  0
LINE
  5
E3
330
1F
100
AcDbEntity
  8
Layer 01
100
AcDbLine
 10
45.0
 20
-24.0
 30
0.0
 11
85.0
 21
-24.0
 31
0.0
  0
LINE
  5
E4
330
1F
100
AcDbEntity
  8
Layer 01
100
AcDbLine
 10
45.0
 20
-63.0
 30
0.0
 11
85.0
 21
-63.0
 31
0.0
  0
LINE
  5
E5
330
1F
100
AcDbEntity
  8
Layer 01
100
AcDbLine
 10
49.0
 20
-22.0
 30
0.0
 11
49.0
 21
-72.0
 31
0.0
  0
LINE
  5
E6
330
1F
100
AcDbEntity
  8
Layer 01
100
AcDbLine
 10
81.0
 20
-22.0
 30
0.0
 11
81.0
 21
-72.0
 31
0.0
  0
LINE
  5
E7
330
1F
100
AcDbEntity
  8
Layer 01
100
AcDbLine
 10
80.0
 20
-22.0
 30
0.0
 11
80.0
 21
-72.0
 31
0.0
  0
LINE
  5
E8
330
1F
100
AcDbEntity
  8
Layer 01
100
AcDbLine
 10
79.0
 20
-22.0
 30
0.0
 11
79.0
 21
-72.0
 31
0.0
  0
LINE
  5
E9
330
1F
100
AcDbEntity
  8
Layer 01
100
AcDbLine
 10
63.0
 20
-22.0
 30
0.0
 11
63.0
 21
-72.0
 31
0.0
  0
LINE
  5
EA
330
1F
100
AcDbEntity
  8
Layer 01
100
AcDbLine
 10
56.0
 20
-22.0
 30
0.0
 11
56.0
 21
-72.0
 31
0.0
  0
LINE
  5
EB
330
1F
100
AcDbEntity
  8
Layer 01
100
AcDbLine
 10
54.0
 20
-22.0
 30
0.0
 11
54.0
 21
-72.0
 31
0.0
  0
LINE
  5
EC
330
1F
100
AcDbEntity
  8
Layer 01
100
AcDbLine
 10
51.0
 20
-22.0
 30
0.0
 11
51.0
 21
-72.0
 31
0.0
  0
LINE
  5
ED
330
1F
100
AcDbEntity
  8
Layer 01
100
AcDbLine
 10
45.0
 20
-69.0
 30
0.0
 11
85.0
 21
-69.0
 31
0.0
  0
LINE
  5
EE
330
1F
100
AcDbEntity
  8
Layer 01
100
AcDbLine
 10
45.0
 20
-71.0
 30
0.0
 11
85.0
 21
-71.0
 31
0.0
  0
LINE
  5
EF
330
1F
100
AcDbEntity
  8
Layer 01
100
AcDbLine
 10
45.0
 20
-22.0
 30
0.0
 11
85.0
 21
-22.0
 31
0.0
  0
LINE
  5
F0
330
1F
100
AcDbEntity
  8
Layer 01
100
AcDbLine
 10
45.0
 20
-67.0
 30
0.0
 11
85.0
 21
-67.0
 31
0.0
  0
LINE
  5
F1
330
1F
100
AcDbEntity
  8
Layer 01
100
AcDbLine
 10
45.0
 20
-72.0
 30
0.0
 11
85.0
 21
-72.0
 31
0.0
  0
LINE
  5
F2
330
1F
100
AcDbEntity
  8
Layer 01
100
AcDbLine
 10
45.0
 20
-70.0
 30
0.0
 11
85.0
 21
-70.0
 31
0.0
  0
LINE
  5
F3
330
1F
100
AcDbEntity
  8
Layer 01
100
AcDbLine
 10
45.0
 20
-68.0
 30
0.0
 11
85.0
 21
-68.0
 31
0.0
  0
LINE
  5
F4
330
1F
100
AcDbEntity
  8
Layer 01
100
AcDbLine
 10
45.0
 20
-66.0
 30
0.0
 11
85.0
 21
-66.0
 31
0.0
  0
LINE
  5
F5
330
1F
100
AcDbEntity
  8
Layer 01
100
AcDbLine
 10
84.0
 20
-22.0
 30
0.0
 11
84.0
 21
-72.0
 31
0.0
  0
LINE
  5
F6
330
1F
100
AcDbEntity
  8
Layer 01
100
AcDbLine
 10
53.0
 20
-22.0
 30
0.0
 11
53.0
 21
-72.0
 31
0.0
  0
LINE
  5
F7
330
1F
100
AcDbEntity
  8
Layer 01
100
AcDbLine
 10
45.0
 20
-65.0
 30
0.0
 11
85.0
 21
-65.0
 31
0.0
  0
LINE
  5
F8
330
1F
100
AcDbEntity
  8
Layer 01
100
AcDbLine
 10
85.0
 20
-22.0
 30
0.0
 11
85.0
 21
-72.0
 31
0.0
  0
LINE
  5
F9
330
1F
100
AcDbEntity
  8
Layer 01
100
AcDbLine
 10
50.0
 20
-22.0
 30
0.0
 11
50.0
 21
-72.0
 31
0.0
  0
LINE
  5
FA
330
1F
100
AcDbEntity
  8
Layer 01
100
AcDbLine
 10
46.0
 20
-22.0
 30
0.0
 11
46.0
 21
-72.0
 31
0.0
  0
LINE
  5
FB
330
1F
100
AcDbEntity
  8
Layer 01
100
AcDbLine
 10
45.0
 20
-22.0
 30
0.0
 11
45.0
 21
-72.0
 31
0.0
  0
LINE
  5
FC
330
1F
100
AcDbEntity
  8
Layer 01
100
AcDbLine
 10
83.0
 20
-22.0
 30
0.0
 11
83.0
 21
-72.0
 31
0.0
  0
LINE
  5
FD
330
1F
100
AcDbEntity
  8
Layer 01
100
AcDbLine
 10
82.0
 20
-22.0
 30
0.0
 11
82.0
 21
-72.0
 31
0.0
  0
LINE
  5
FE
330
1F
100
AcDbEntity
  8
Layer 01
100
AcDbLine
 10
78.0
 20
-22.0
 30
0.0
 11
78.0
 21
-72.0
 31
0.0
  0
LINE
  5
FF
330
1F
100
AcDbEntity
  8
Layer 01
100
AcDbLine
 10
77.0
 20
-22.0
 30
0.0
 11
77.0
 21
-72.0
 31
0.0
  0
LINE
  5
100
330
1F
100
AcDbEntity
  8
Layer 01
100
AcDbLine
 10
76.0
 20
-22.0
 30
0.0
 11
76.0
 21
-72.0
 31
0.0
  0
LINE
  5
101
330
1F
100
AcDbEntity
  8
Layer 01
100
AcDbLine
 10
75.0
 20
-22.0
 30
0.0
 11
75.0
 21
-72.0
 31
0.0
  0
LINE
  5
102
330
1F
100
AcDbEntity
  8
Layer 01
100
AcDbLine
 10
74.0
 20
-22.0
 30
0.0
 11
74.0
 21
-72.0
 31
0.0
  0
LINE
  5
103
330
1F
100
AcDbEntity
  8
Layer 01
100
AcDbLine
 10
73.0
 20
-22.0
 30
0.0
 11
73.0
 21
-72.0
 31
0.0
  0
LINE
  5
104
330
1F
100
AcDbEntity
  8
Layer 01
100
AcDbLine
 10
72.0
 20
-22.0
 30
0.0
 11
72.0
 21
-72.0
 31
0.0
  0
LINE
  5
105
330
1F
100
AcDbEntity
  8
Layer 01
100
AcDbLine
 10
71.0
 20
-22.0
 30
0.0
 11
71.0
 21
-72.0
 31
0.0
  0
LINE
  5
106
330
1F
100
AcDbEntity
  8
Layer 01
100
AcDbLine
 10
70.0
 20
-22.0
 30
0.0
 11
70.0
 21
-72.0
 31
0.0
  0
LINE
  5
107
330
1F
100
AcDbEntity
  8
Layer 01
100
AcDbLine
 10
45.0
 20
-64.0
 30
0.0
 11
85.0
 21
-64.0
 31
0.0
  0
LINE
  5
108
330
1F
100
AcDbEntity
  8
Layer 01
100
AcDbLine
 10
57.0
 20
-22.0
 30
0.0
 11
57.0
 21
-72.0
 31
0.0
  0
LINE
  5
109
330
1F
100
AcDbEntity
  8
Layer 01
100
AcDbLine
 10
47.0
 20
-22.0
 30
0.0
 11
47.0
 21
-72.0
 31
0.0
  0
LINE
  5
10A
330
1F
100
AcDbEntity
  8
Layer 01
100
AcDbLine
 10
45.0
 20
-62.0
 30
0.0
 11
85.0
 21
-62.0
 31
0.0
  0
LINE
  5
10B
330
1F
100
AcDbEntity
  8
Layer 01
100
AcDbLine
 10
69.0
 20
-22.0
 30
0.0
 11
69.0
 21
-72.0
 31
0.0
  0
LINE
  5
10C
330
1F
100
AcDbEntity
  8
Layer 01
100
AcDbLine
 10
68.0
 20
-22.0
 30
0.0
 11
68.0
 21
-72.0
 31
0.0
  0
LINE
  5
10D
330
1F
100
AcDbEntity
  8
Layer 01
100
AcDbLine
 10
67.0
 20
-22.0
 30
0.0
 11
67.0
 21
-72.0
 31
0.0
  0
LINE
  5
10E
330
1F
100
AcDbEntity
  8
Layer 01
100
AcDbLine
 10
66.0
 20
-22.0
 30
0.0
 11
66.0
 21
-72.0
 31
0.0
  0
LINE
  5
10F
330
1F
100
AcDbEntity
  8
Layer 01
100
AcDbLine
 10
65.0
 20
-22.0
 30
0.0
 11
65.0
 21
-72.0
 31
0.0
  0
LINE
  5
110
330
1F
100
AcDbEntity
  8
Layer 01
100
AcDbLine
 10
64.0
 20
-22.0
 30
0.0
 11
64.0
 21
-72.0
 31
0.0
  0
LINE
  5
111
330
1F
100
AcDbEntity
  8
Layer 01
100
AcDbLine
 10
62.0
 20
-22.0
 30
0.0
 11
62.0
 21
-72.0
 31
0.0
  0
LINE
  5
112
330
1F
100
AcDbEntity
  8
Layer 01
100
AcDbLine
 10
61.0
 20
-22.0
 30
0.0
 11
61.0
 21
-72.0
 31
0.0
  0
LINE
  5
113
330
1F
100
AcDbEntity
  8
Layer 01
100
AcDbLine
 10
60.0
 20
-22.0
 30
0.0
 11
60.0
 21
-72.0
 31
0.0
  0
LINE
  5
114
330
1F
100
AcDbEntity
  8
Layer 01
100
AcDbLine
 10
59.0
 20
-22.0
 30
0.0
 11
59.0
 21
-72.0
 31
0.0
  0
LINE
  5
115
330
1F
100
AcDbEntity
  8
Layer 01
100
AcDbLine
 10
58.0
 20
-22.0
 30
0.0
 11
58.0
 21
-72.0
 31
0.0
  0
LINE
  5
116
330
1F
100
AcDbEntity
  8
Layer 01
100
AcDbLine
 10
55.0
 20
-22.0
 30
0.0
 11
55.0
 21
-72.0
 31
0.0
  0
LINE
  5
117
330
1F
100
AcDbEntity
  8
Layer 01
100
AcDbLine
 10
52.0
 20
-22.0
 30
0.0
 11
52.0
 21
-72.0
 31
0.0
  0
POLYLINE
  5
119
330
1F
100
AcDbEntity
  8
Layer 02
100
AcDb2dPolyline
 66
     1
 10
0.0
 20
0.0
 30
0.0
  0
VERTEX
  5
11A
330
119
100
AcDbEntity
  8
Layer 02
100
AcDbVertex
100
AcDb2dVertex
 10
60.5
 20
-36.5
 30
0.0
  0
VERTEX
  5
11B
330
119
100
AcDbEntity
  8
Layer 02
100
AcDbVertex
100
AcDb2dVertex
 10
90.2
 20
-36.5
 30
0.0
  0
VERTEX
  5
11C
330
119
100
AcDbEntity
  8
Layer 02
100
AcDbVertex
100
AcDb2dVertex
 10
90.2
 20
5.5
 30
0.0
  0
VERTEX
  5
11D
330
119
100
AcDbEntity
  8
Layer 02
100
AcDbVertex
100
AcDb2dVertex
 10
60.5
 20
5.5
 30
0.0
  0
VERTEX
  5
11E
330
119
100
AcDbEntity
  8
Layer 02
100
AcDbVertex
100
AcDb2dVertex
 10
60.5
 20
-36.5
 30
0.0
  0
SEQEND
  5
11F
330
119
100
AcDbEntity
  8
Layer 02
  0
POLYLINE
  5
120
330
1F
100
AcDbEntity
  8
Layer 02
100
AcDb2dPolyline
 66
     1
 10
0.0
 20
0.0
 30
0.0
  0
VERTEX
  5
121
330
120
100
AcDbEntity
  8
Layer 02
100
AcDbVertex
100
AcDb2dVertex
 10
54.5
 20
-64.5
 30
0.0
  0
VERTEX
  5
122
330
120
100
AcDbEntity
  8
Layer 02
100
AcDbVertex
100
AcDb2dVertex
 10
84.2
 20
-64.5
 30
0.0
  0
VERTEX
  5
123
330
120
100
AcDbEntity
  8
Layer 02
100
AcDbVertex
100
AcDb2dVertex
 10
84.2
 20
-22.5
 30
0.0
  0
VERTEX
  5
124
330
120
100
AcDbEntity
  8
Layer 02
100
AcDbVertex
100
AcDb2dVertex
 10
54.5
 20
-22.5
 30
0.0
  0
VERTEX
  5
125
330
120
100
AcDbEntity
  8
Layer 02
100
AcDbVertex
100
AcDb2dVertex
 10
54.5
 20
-64.5
 30
0.0
  0
SEQEND
  5
126
330
120
100
AcDbEntity
  8
Layer 02
  0
LINE
  5
127
330
1F
100
AcDbEntity
  8
Default
100
AcDbLine
 10
75.77926451680332
 20
-51.76518494921417
 30
0.0
 11
76.666665
 21
-57.368015
 31
0.0
  0
LINE
  5
128
330
1F
100
AcDbEntity
  8
Default
100
AcDbLine
 10
62.065155
 20
-55.83333500000001
 30
0.0
 11
64.09805655346071
 21
-50.53744516327468
 31
0.0
  0
LINE
  5
129
330
1F
100
AcDbEntity
  8
Default
100
AcDbLine
 10
74.6014658466166
 20
-6.787512986905901
 30
0.0
 11
75.31485950999085
 21
-0.0000000000000075
 31
0.0
  0
LINE
  5
12A
330
1F
100
AcDbEntity
  8
Layer 01
100
AcDbLine
 10
88.82892906815022
 20
72.66122492754523
 30
0.0
 11
88.82892906815022
 21
22.66122492754522
 31
0.0
  0
LINE
  5
12B
330
1F
100
AcDbEntity
  8
Layer 01
100
AcDbLine
 10
69.82892906815022
 20
29.66122492754522
 30
0.0
 11
109.8289290681502
 21
29.66122492754522
 31
0.0
  0
LINE
  5
12C
330
1F
100
AcDbEntity
  8
Layer 01
100
AcDbLine
 10
69.82892906815022
 20
30.66122492754522
 30
0.0
 11
109.8289290681502
 21
30.66122492754522
 31
0.0
  0
LINE
  5
12D
330
1F
100
AcDbEntity
  8
Layer 01
100
AcDbLine
 10
-14.23254520166898
 20
25.62726008344923
 30
0.0
 11
25.76745479833102
 21
25.62726008344923
 31
0.0
  0
LINE
  5
12E
330
1F
100
AcDbEntity
  8
Layer 01
100
AcDbLine
 10
-14.23254520166898
 20
24.62726008344923
 30
0.0
 11
25.76745479833102
 21
24.62726008344923
 31
0.0
  0
LINE
  5
12F
330
1F
100
AcDbEntity
  8
Layer 01
100
AcDbLine
 10
-14.23254520166898
 20
23.62726008344923
 30
0.0
 11
25.76745479833102
 21
23.62726008344923
 31
0.0
  0
LINE
  5
130
330
1F
100
AcDbEntity
  8
Layer 01
100
AcDbLine
 10
27.76745479833102
 20
45.62726008344923
 30
0.0
 11
67.76745479833102
 21
45.62726008344923
 31
0.0
  0
LINE
  5
131
330
1F
100
AcDbEntity
  8
Layer 01
100
AcDbLine
 10
27.76745479833102
 20
52.62726008344923
 30
0.0
 11
67.76745479833102
 21
52.62726008344923
 31
0.0
  0
LINE
  5
132
330
1F
100
AcDbEntity
  8
Layer 01
100
AcDbLine
 10
27.76745479833102
 20
13.62726008344923
 30
0.0
 11
67.76745479833102
 21
13.62726008344923
 31
0.0
  0
LINE
  5
133
330
1F
100
AcDbEntity
  8
Layer 01
100
AcDbLine
 10
27.76745479833102
 20
14.62726008344923
 30
0.0
 11
67.76745479833102
 21
14.62726008344923
 31
0.0
  0
LINE
  5
134
330
1F
100
AcDbEntity
  8
Layer 01
100
AcDbLine
 10
27.76745479833102
 20
15.62726008344923
 30
0.0
 11
67.76745479833102
 21
15.62726008344923
 31
0.0
  0
LINE
  5
135
330
1F
100
AcDbEntity
  8
Layer 01
100
AcDbLine
 10
27.76745479833102
 20
16.62726008344923
 30
0.0
 11
67.76745479833102
 21
16.62726008344923
 31
0.0
  0
LINE
  5
136
330
1F
100
AcDbEntity
  8
Layer 01
100
AcDbLine
 10
27.76745479833102
 20
17.62726008344923
 30
0.0
 11
67.76745479833102
 21
17.62726008344923
 31
0.0
  0
LINE
  5
137
330
1F
100
AcDbEntity
  8
Layer 01
100
AcDbLine
 10
27.76745479833102
 20
26.62726008344923
 30
0.0
 11
67.76745479833102
 21
26.62726008344923
 31
0.0
  0
LINE
  5
138
330
1F
100
AcDbEntity
  8
Layer 01
100
AcDbLine
 10
27.76745479833102
 20
27.62726008344923
 30
0.0
 11
67.76745479833102
 21
27.62726008344923
 31
0.0
  0
LINE
  5
139
330
1F
100
AcDbEntity
  8
Layer 01
100
AcDbLine
 10
27.76745479833102
 20
28.62726008344923
 30
0.0
 11
67.76745479833102
 21
28.62726008344923
 31
0.0
  0
LINE
  5
13A
330
1F
100
AcDbEntity
  8
Layer 01
100
AcDbLine
 10
27.76745479833102
 20
29.62726008344923
 30
0.0
 11
67.76745479833102
 21
29.62726008344923
 31
0.0
  0
LINE
  5
13B
330
1F
100
AcDbEntity
  8
Layer 01
100
AcDbLine
 10
27.76745479833102
 20
47.62726008344923
 30
0.0
 11
67.76745479833102
 21
47.62726008344923
 31
0.0
  0
LINE
  5
13C
330
1F
100
AcDbEntity
  8
Layer 01
100
AcDbLine
 10
27.76745479833102
 20
49.62726008344923
 30
0.0
 11
67.76745479833102
 21
49.62726008344923
 31
0.0
  0
LINE
  5
13D
330
1F
100
AcDbEntity
  8
Layer 01
100
AcDbLine
 10
27.76745479833102
 20
50.62726008344923
 30
0.0
 11
67.76745479833102
 21
50.62726008344923
 31
0.0
  0
LINE
  5
13E
330
1F
100
AcDbEntity
  8
Layer 01
100
AcDbLine
 10
27.76745479833102
 20
51.62726008344923
 30
0.0
 11
67.76745479833102
 21
51.62726008344923
 31
0.0
  0
LINE
  5
13F
330
1F
100
AcDbEntity
  8
Layer 01
100
AcDbLine
 10
27.76745479833102
 20
46.62726008344923
 30
0.0
 11
67.76745479833102
 21
46.62726008344923
 31
0.0
  0
LINE
  5
140
330
1F
100
AcDbEntity
  8
Layer 01
100
AcDbLine
 10
27.76745479833102
 20
48.62726008344923
 30
0.0
 11
67.76745479833102
 21
48.62726008344923
 31
0.0
  0
SPLINE
  5
141
330
1F
100
AcDbEntity
  8
Default
100
AcDbSpline
210
0.0
220
0.0
230
1.0
 70
     8
 71
     2
 72
     6
 73
     3
 74
     0
 42
0.0000000001
 43
0.0000000001
 40
0.0
 40
0.0
 40
0.0
 40
1.0
 40
1.0
 40
1.0
 10
42.66959479833102
 20
21.53228008344923
 30
0.0
 10
42.80622979833102
 20
22.17508008344923
 30
0.0
 10
42.60315479833101
 20
22.80008008344923
 30
0.0
  0
SPLINE
  5
142
330
1F
100
AcDbEntity
  8
Default
100
AcDbSpline
210
0.0
220
0.0
230
1.0
 70
     8
 71
     2
 72
     6
 73
     3
 74
     0
 42
0.0000000001
 43
0.0000000001
 40
0.0
 40
0.0
 40
0.0
 40
1.0
 40
1.0
 40
1.0
 10
40.36531479833101
 20
21.53228008344923
 30
0.0
 10
40.22867979833102
 20
22.17508008344923
 30
0.0
 10
40.43175479833102
 20
22.80008008344923
 30
0.0
  0
SPLINE
  5
143
330
1F
100
AcDbEntity
  8
Default
100
AcDbSpline
210
0.0
220
0.0
230
1.0
 70
     8
 71
     2
 72
     6
 73
     3
 74
     0
 42
0.0000000001
 43
0.0000000001
 40
0.0
 40
0.0
 40
0.0
 40
1.0
 40
1.0
 40
1.0
 10
39.74031479833101
 20
21.73535008344924
 30
0.0
 10
40.22867979833102
 20
22.17508008344923
 30
0.0
 10
40.43175479833102
 20
22.80008008344923
 30
0.0
  0
LINE
  5
144
330
1F
100
AcDbEntity
  8
Default
100
AcDbLine
 10
8.100789798331018
 20
30.98102008344924
 30
0.0
 11
9.728679798331015
 21
32.44678008344923
 31
0.0
  0
LINE
  5
145
330
1F
100
AcDbEntity
  8
Default
100
AcDbLine
 10
10.18411979833101
 20
30.30410508344924
 30
0.0
 11
11.85078979833102
 21
30.30410508344924
 31
0.0
  0
LINE
  5
146
330
1F
100
AcDbEntity
  8
Default
100
AcDbLine
 10
11.85078979833102
 20
30.30410508344924
 30
0.0
 11
12.30622979833102
 21
32.44678008344923
 31
0.0
  0
LINE
  5
147
330
1F
100
AcDbEntity
  8
Default
100
AcDbLine
 10
14.01745479833102
 20
56.75831008344923
 30
0.0
 11
8.017454798331016
 21
56.75831008344923
 31
0.0
  0
LINE
  5
148
330
1F
100
AcDbEntity
  8
Default
100
AcDbLine
 10
22.26745479833102
 20
51.62726008344923
 30
0.0
 11
18.02481479833101
 21
55.86990008344924
 31
0.0
  0
SPLINE
  5
149
330
1F
100
AcDbEntity
  8
Default
100
AcDbSpline
210
0.0
220
0.0
230
1.0
 70
     8
 71
     2
 72
     6
 73
     3
 74
     0
 42
0.0000000001
 43
0.0000000001
 40
0.0
 40
0.0
 40
0.0
 40
1.0
 40
1.0
 40
1.0
 10
38.05181979833102
 20
54.11755508344923
 30
0.0
 10
37.58617979833102
 20
51.47679508344923
 30
0.0
 10
38.16656479833102
 20
48.85886008344923
 30
0.0
  0
LINE
  5
14A
330
1F
100
AcDbEntity
  8
Default
100
AcDbLine
 10
44.51745479833102
 20
56.75831008344923
 30
0.0
 11
44.98309194128258
 21
54.11755460836848
 31
0.0
  0
LINE
  5
14B
330
1F
100
AcDbEntity
  8
Default
100
AcDbLine
 10
38.05181765537945
 20
54.11755460836848
 30
0.0
 11
38.51745479833102
 21
56.75831008344923
 31
0.0
  0
LINE
  5
14C
330
1F
100
AcDbEntity
  8
Default
100
AcDbLine
 10
34.51009479833102
 20
55.86990008344924
 30
0.0
 11
36.04813694619001
 21
53.67334808635876
 31
0.0
  0
SPLINE
  5
14D
330
1F
100
AcDbEntity
  8
Default
100
AcDbSpline
210
0.0
220
0.0
230
1.0
 70
     8
 71
     2
 72
     6
 73
     3
 74
     0
 42
0.0000000001
 43
0.0000000001
 40
0.0
 40
0.0
 40
0.0
 40
1.0
 40
1.0
 40
1.0
 10
12.16959479833102
 20
31.80398008344923
 30
0.0
 10
12.30622979833102
 20
32.44678008344923
 30
0.0
 10
12.10315479833101
 20
33.07178008344923
 30
0.0
  0
SPLINE
  5
14E
330
1F
100
AcDbEntity
  8
Default
100
AcDbSpline
210
0.0
220
0.0
230
1.0
 70
     8
 71
     2
 72
     6
 73
     3
 74
     0
 42
0.0000000001
 43
0.0000000001
 40
0.0
 40
0.0
 40
0.0
 40
1.0
 40
1.0
 40
1.0
 10
9.240314798331017
 20
32.00705008344924
 30
0.0
 10
9.728679798331015
 20
32.44678008344923
 30
0.0
 10
9.93175479833102
 20
33.07178008344923
 30
0.0
  0
POINT
  5
14F
330
1F
100
AcDbEntity
  8
Default
100
AcDbPoint
 10
14.76745479833102
 20
32.42439508344923
 30
0.0
  0
SPLINE
  5
150
330
1F
100
AcDbEntity
  8
Default
100
AcDbSpline
210
0.0
220
0.0
230
1.0
 70
     8
 71
     2
 72
     6
 73
     3
 74
     0
 42
0.0000000001
 43
0.0000000001
 40
0.0
 40
0.0
 40
0.0
 40
1.0
 40
1.0
 40
1.0
 10
12.79459479833102
 20
32.00705008344924
 30
0.0
 10
12.30622979833102
 20
32.44678008344923
 30
0.0
 10
12.10315479833101
 20
33.07178008344923
 30
0.0
  0
LINE
  5
151
330
1F
100
AcDbEntity
  8
Default
100
AcDbLine
 10
9.728679798331015
 20
32.44678008344923
 30
0.0
 11
10.18411979833101
 21
30.30410508344924
 31
0.0
  0
LINE
  5
152
330
1F
100
AcDbEntity
  8
Default
100
AcDbLine
 10
7.267454798331016
 20
32.42439508344923
 30
0.0
 11
8.100789798331018
 21
30.98102008344924
 31
0.0
  0
LINE
  5
153
330
1F
100
AcDbEntity
  8
Default
100
AcDbLine
 10
14.48309194128258
 20
54.11755460836848
 30
0.0
 11
14.01745479833102
 21
56.75831008344923
 31
0.0
  0
LINE
  5
154
330
1F
100
AcDbEntity
  8
Default
100
AcDbLine
 10
18.02481479833101
 20
55.86990008344924
 30
0.0
 11
16.48677265047202
 21
53.67334808635876
 31
0.0
  0
LINE
  5
155
330
1F
100
AcDbEntity
  8
Default
100
AcDbLine
 10
22.26745479833102
 20
51.62726008344923
 30
0.0
 11
14.76745479833102
 21
32.42439508344923
 31
0.0
  0
LINE
  5
156
330
1F
100
AcDbEntity
  8
Default
100
AcDbLine
 10
-0.2325452016689837
 20
51.62726008344923
 30
0.0
 11
7.267454798331016
 21
32.42439508344923
 31
0.0
  0
LINE
  5
157
330
1F
100
AcDbEntity
  8
Default
100
AcDbLine
 10
42.80622979833102
 20
22.17508008344923
 30
0.0
 11
42.35078979833102
 21
20.03240508344924
 31
0.0
  0
POINT
  5
158
330
1F
100
AcDbEntity
  8
Default
100
AcDbPoint
 10
45.26745479833102
 20
22.15269508344923
 30
0.0
  0
POINT
  5
159
330
1F
100
AcDbEntity
  8
Default
100
AcDbPoint
 10
37.76745479833102
 20
22.15269508344923
 30
0.0
  0
LINE
  5
15A
330
1F
100
AcDbEntity
  8
Default
100
AcDbLine
 10
5.548136946190009
 20
53.67334808635876
 30
0.0
 11
4.010094798331016
 21
55.86990008344924
 31
0.0
  0
LINE
  5
15B
330
1F
100
AcDbEntity
  8
Default
100
AcDbLine
 10
8.017454798331016
 20
56.75831008344923
 30
0.0
 11
7.551817655379452
 21
54.11755460836848
 31
0.0
  0
LINE
  5
15C
330
1F
100
AcDbEntity
  8
Layer 01
100
AcDbLine
 10
27.76745479833102
 20
62.62726008344923
 30
0.0
 11
67.76745479833102
 21
62.62726008344923
 31
0.0
  0
LINE
  5
15D
330
1F
100
AcDbEntity
  8
Layer 01
100
AcDbLine
 10
27.76745479833102
 20
20.62726008344923
 30
0.0
 11
67.76745479833102
 21
20.62726008344923
 31
0.0
  0
LINE
  5
15E
330
1F
100
AcDbEntity
  8
Layer 01
100
AcDbLine
 10
62.76745479833102
 20
63.62726008344923
 30
0.0
 11
62.76745479833102
 21
13.62726008344923
 31
0.0
  0
LINE
  5
15F
330
1F
100
AcDbEntity
  8
Layer 01
100
AcDbLine
 10
27.76745479833102
 20
63.62726008344923
 30
0.0
 11
67.76745479833102
 21
63.62726008344923
 31
0.0
  0
LINE
  5
160
330
1F
100
AcDbEntity
  8
Layer 01
100
AcDbLine
 10
63.76745479833102
 20
63.62726008344923
 30
0.0
 11
63.76745479833102
 21
13.62726008344923
 31
0.0
  0
LINE
  5
161
330
1F
100
AcDbEntity
  8
Layer 01
100
AcDbLine
 10
27.76745479833102
 20
21.62726008344923
 30
0.0
 11
67.76745479833102
 21
21.62726008344923
 31
0.0
  0
LINE
  5
162
330
1F
100
AcDbEntity
  8
Layer 01
100
AcDbLine
 10
60.76745479833102
 20
63.62726008344923
 30
0.0
 11
60.76745479833102
 21
13.62726008344923
 31
0.0
  0
LINE
  5
163
330
1F
100
AcDbEntity
  8
Layer 01
100
AcDbLine
 10
65.76745479833102
 20
63.62726008344923
 30
0.0
 11
65.76745479833102
 21
13.62726008344923
 31
0.0
  0
LINE
  5
164
330
1F
100
AcDbEntity
  8
Layer 01
100
AcDbLine
 10
61.76745479833102
 20
63.62726008344923
 30
0.0
 11
61.76745479833102
 21
13.62726008344923
 31
0.0
  0
LINE
  5
165
330
1F
100
AcDbEntity
  8
Layer 01
100
AcDbLine
 10
27.76745479833102
 20
55.62726008344923
 30
0.0
 11
67.76745479833102
 21
55.62726008344923
 31
0.0
  0
LINE
  5
166
330
1F
100
AcDbEntity
  8
Layer 01
100
AcDbLine
 10
27.76745479833102
 20
18.62726008344923
 30
0.0
 11
67.76745479833102
 21
18.62726008344923
 31
0.0
  0
LINE
  5
167
330
1F
100
AcDbEntity
  8
Layer 01
100
AcDbLine
 10
27.76745479833102
 20
60.62726008344923
 30
0.0
 11
67.76745479833102
 21
60.62726008344923
 31
0.0
  0
LINE
  5
168
330
1F
100
AcDbEntity
  8
Layer 01
100
AcDbLine
 10
27.76745479833102
 20
61.62726008344923
 30
0.0
 11
67.76745479833102
 21
61.62726008344923
 31
0.0
  0
LINE
  5
169
330
1F
100
AcDbEntity
  8
Layer 01
100
AcDbLine
 10
27.76745479833102
 20
40.62726008344923
 30
0.0
 11
67.76745479833102
 21
40.62726008344923
 31
0.0
  0
LINE
  5
16A
330
1F
100
AcDbEntity
  8
Layer 01
100
AcDbLine
 10
27.76745479833102
 20
41.62726008344923
 30
0.0
 11
67.76745479833102
 21
41.62726008344923
 31
0.0
  0
LINE
  5
16B
330
1F
100
AcDbEntity
  8
Layer 01
100
AcDbLine
 10
27.76745479833102
 20
42.62726008344923
 30
0.0
 11
67.76745479833102
 21
42.62726008344923
 31
0.0
  0
LINE
  5
16C
330
1F
100
AcDbEntity
  8
Layer 01
100
AcDbLine
 10
27.76745479833102
 20
43.62726008344923
 30
0.0
 11
67.76745479833102
 21
43.62726008344923
 31
0.0
  0
LINE
  5
16D
330
1F
100
AcDbEntity
  8
Layer 01
100
AcDbLine
 10
27.76745479833102
 20
44.62726008344923
 30
0.0
 11
67.76745479833102
 21
44.62726008344923
 31
0.0
  0
LINE
  5
16E
330
1F
100
AcDbEntity
  8
Default
100
AcDbLine
 10
4.010094798331016
 20
55.86990008344924
 30
0.0
 11
-0.2325452016689837
 21
51.62726008344923
 31
0.0
  0
LINE
  5
16F
330
1F
100
AcDbEntity
  8
Default
100
AcDbLine
 10
13.93411979833101
 20
30.98102008344924
 30
0.0
 11
14.76745479833102
 21
32.42439508344923
 31
0.0
  0
SPLINE
  5
170
330
1F
100
AcDbEntity
  8
Default
100
AcDbSpline
210
0.0
220
0.0
230
1.0
 70
     8
 71
     2
 72
     6
 73
     3
 74
     0
 42
0.0000000001
 43
0.0000000001
 40
0.0
 40
0.0
 40
0.0
 40
1.0
 40
1.0
 40
1.0
 10
36.04813979833102
 20
53.67335008344924
 30
0.0
 10
37.58617979833102
 20
51.47679508344923
 30
0.0
 10
38.16656479833102
 20
48.85886008344923
 30
0.0
  0
SPLINE
  5
171
330
1F
100
AcDbEntity
  8
Default
100
AcDbSpline
210
0.0
220
0.0
230
1.0
 70
     8
 71
     2
 72
     6
 73
     3
 74
     0
 42
0.0000000001
 43
0.0000000001
 40
0.0
 40
0.0
 40
0.0
 40
1.0
 40
1.0
 40
1.0
 10
16.48676979833101
 20
53.67335008344924
 30
0.0
 10
14.94872979833102
 20
51.47679508344923
 30
0.0
 10
14.36834479833102
 20
48.85886008344923
 30
0.0
  0
POLYLINE
  5
172
330
1F
100
AcDbEntity
  8
Layer 02
100
AcDb2dPolyline
 66
     1
 10
0.0
 20
0.0
 30
0.0
  0
VERTEX
  5
173
330
172
100
AcDbEntity
  8
Layer 02
100
AcDbVertex
100
AcDb2dVertex
 10
27.26745479833102
 20
17.12726008344923
 30
0.0
  0
VERTEX
  5
174
330
172
100
AcDbEntity
  8
Layer 02
100
AcDbVertex
100
AcDb2dVertex
 10
56.96745479833102
 20
17.12726008344923
 30
0.0
  0
VERTEX
  5
175
330
172
100
AcDbEntity
  8
Layer 02
100
AcDbVertex
100
AcDb2dVertex
 10
56.96745479833102
 20
59.12726008344923
 30
0.0
  0
VERTEX
  5
176
330
172
100
AcDbEntity
  8
Layer 02
100
AcDbVertex
100
AcDb2dVertex
 10
27.26745479833102
 20
59.12726008344923
 30
0.0
  0
VERTEX
  5
177
330
172
100
AcDbEntity
  8
Layer 02
100
AcDbVertex
100
AcDb2dVertex
 10
27.26745479833102
 20
17.12726008344923
 30
0.0
  0
SEQEND
  5
178
330
172
100
AcDbEntity
  8
Layer 02
  0
LINE
  5
179
330
1F
100
AcDbEntity
  8
Layer 01
100
AcDbLine
 10
27.76745479833102
 20
54.62726008344923
 30
0.0
 11
67.76745479833102
 21
54.62726008344923
 31
0.0
  0
LINE
  5
17A
330
1F
100
AcDbEntity
  8
Layer 01
100
AcDbLine
 10
27.76745479833102
 20
33.62726008344923
 30
0.0
 11
67.76745479833102
 21
33.62726008344923
 31
0.0
  0
LINE
  5
17B
330
1F
100
AcDbEntity
  8
Default
100
AcDbLine
 10
12.16959479833102
 20
31.80398008344923
 30
0.0
 11
12.79459479833102
 21
32.00705008344924
 31
0.0
  0
LINE
  5
17C
330
1F
100
AcDbEntity
  8
Layer 01
100
AcDbLine
 10
27.76745479833102
 20
59.62726008344923
 30
0.0
 11
67.76745479833102
 21
59.62726008344923
 31
0.0
  0
LINE
  5
17D
330
1F
100
AcDbEntity
  8
Layer 01
100
AcDbLine
 10
27.76745479833102
 20
53.62726008344923
 30
0.0
 11
67.76745479833102
 21
53.62726008344923
 31
0.0
  0
LINE
  5
17E
330
1F
100
AcDbEntity
  8
Layer 01
100
AcDbLine
 10
67.76745479833102
 20
63.62726008344923
 30
0.0
 11
67.76745479833102
 21
13.62726008344923
 31
0.0
  0
LINE
  5
17F
330
1F
100
AcDbEntity
  8
Layer 01
100
AcDbLine
 10
27.76745479833102
 20
19.62726008344923
 30
0.0
 11
67.76745479833102
 21
19.62726008344923
 31
0.0
  0
LINE
  5
180
330
1F
100
AcDbEntity
  8
Layer 01
100
AcDbLine
 10
66.76745479833102
 20
63.62726008344923
 30
0.0
 11
66.76745479833102
 21
13.62726008344923
 31
0.0
  0
LINE
  5
181
330
1F
100
AcDbEntity
  8
Default
100
AcDbLine
 10
38.60078979833102
 20
20.70932008344924
 30
0.0
 11
37.76745479833102
 21
22.15269508344923
 31
0.0
  0
LINE
  5
182
330
1F
100
AcDbEntity
  8
Default
100
AcDbLine
 10
36.04813979833102
 20
53.67335008344924
 30
0.0
 11
38.05181979833102
 21
54.11755508344923
 31
0.0
  0
LINE
  5
183
330
1F
100
AcDbEntity
  8
Default
100
AcDbLine
 10
7.551819798331016
 20
54.11755508344923
 30
0.0
 11
5.548139798331016
 21
53.67335008344924
 31
0.0
  0
SPLINE
  5
184
330
1F
100
AcDbEntity
  8
Default
100
AcDbSpline
210
0.0
220
0.0
230
1.0
 70
     8
 71
     2
 72
     6
 73
     3
 74
     0
 42
0.0000000001
 43
0.0000000001
 40
0.0
 40
0.0
 40
0.0
 40
1.0
 40
1.0
 40
1.0
 10
43.29459479833102
 20
21.73535008344924
 30
0.0
 10
42.80622979833102
 20
22.17508008344923
 30
0.0
 10
42.60315479833101
 20
22.80008008344923
 30
0.0
  0
LINE
  5
185
330
1F
100
AcDbEntity
  8
Default
100
AcDbLine
 10
43.29459479833102
 20
21.73535008344924
 30
0.0
 11
42.66959479833102
 21
21.53228008344923
 31
0.0
  0
LINE
  5
186
330
1F
100
AcDbEntity
  8
Default
100
AcDbLine
 10
40.36531479833101
 20
21.53228008344923
 30
0.0
 11
39.74031479833101
 21
21.73535008344924
 31
0.0
  0
LINE
  5
187
330
1F
100
AcDbEntity
  8
Default
100
AcDbLine
 10
40.22867979833102
 20
22.17508008344923
 30
0.0
 11
38.60078979833102
 21
20.70932008344924
 31
0.0
  0
LINE
  5
188
330
1F
100
AcDbEntity
  8
Default
100
AcDbLine
 10
48.52481479833101
 20
55.86990008344924
 30
0.0
 11
52.76745479833102
 21
51.62726008344923
 31
0.0
  0
LINE
  5
189
330
1F
100
AcDbEntity
  8
Layer 01
100
AcDbLine
 10
64.76745479833102
 20
63.62726008344923
 30
0.0
 11
64.76745479833102
 21
13.62726008344923
 31
0.0
  0
LINE
  5
18A
330
1F
100
AcDbEntity
  8
Default
100
AcDbLine
 10
44.98308979833102
 20
54.11755508344923
 30
0.0
 11
46.98676979833102
 21
53.67335008344924
 31
0.0
  0
LINE
  5
18B
330
1F
100
AcDbEntity
  8
Default
100
AcDbLine
 10
52.76745479833102
 20
51.62726008344923
 30
0.0
 11
45.26745479833102
 21
22.15269508344923
 31
0.0
  0
SPLINE
  5
18C
330
1F
100
AcDbEntity
  8
Default
100
AcDbSpline
210
0.0
220
0.0
230
1.0
 70
     8
 71
     2
 72
     6
 73
     3
 74
     0
 42
0.0000000001
 43
0.0000000001
 40
0.0
 40
0.0
 40
0.0
 40
1.0
 40
1.0
 40
1.0
 10
5.548139798331016
 20
53.67335008344924
 30
0.0
 10
7.086179798331017
 20
51.47679508344923
 30
0.0
 10
7.666564798331017
 20
48.85886008344923
 30
0.0
  0
SPLINE
  5
18D
330
1F
100
AcDbEntity
  8
Default
100
AcDbSpline
210
0.0
220
0.0
230
1.0
 70
     8
 71
     2
 72
     6
 73
     3
 74
     0
 42
0.0000000001
 43
0.0000000001
 40
0.0
 40
0.0
 40
0.0
 40
1.0
 40
1.0
 40
1.0
 10
46.98676979833102
 20
53.67335008344924
 30
0.0
 10
45.44872979833102
 20
51.47679508344923
 30
0.0
 10
44.86834479833102
 20
48.85886008344923
 30
0.0
  0
LINE
  5
18E
330
1F
100
AcDbEntity
  8
Default
100
AcDbLine
 10
38.51745479833102
 20
56.75831008344923
 30
0.0
 11
44.51745479833102
 21
56.75831008344923
 31
0.0
  0
LINE
  5
18F
330
1F
100
AcDbEntity
  8
Default
100
AcDbLine
 10
30.26745479833102
 20
51.62726008344923
 30
0.0
 11
34.51009479833102
 21
55.86990008344924
 31
0.0
  0
SPLINE
  5
190
330
1F
100
AcDbEntity
  8
Default
100
AcDbSpline
210
0.0
220
0.0
230
1.0
 70
     8
 71
     2
 72
     6
 73
     3
 74
     0
 42
0.0000000001
 43
0.0000000001
 40
0.0
 40
0.0
 40
0.0
 40
1.0
 40
1.0
 40
1.0
 10
9.865314798331013
 20
31.80398008344923
 30
0.0
 10
9.728679798331015
 20
32.44678008344923
 30
0.0
 10
9.93175479833102
 20
33.07178008344923
 30
0.0
  0
POINT
  5
191
330
1F
100
AcDbEntity
  8
Default
100
AcDbPoint
 10
7.267454798331016
 20
32.42439508344923
 30
0.0
  0
LINE
  5
192
330
1F
100
AcDbEntity
  8
Layer 01
100
AcDbLine
 10
27.76745479833102
 20
31.62726008344923
 30
0.0
 11
67.76745479833102
 21
31.62726008344923
 31
0.0
  0
LINE
  5
193
330
1F
100
AcDbEntity
  8
Default
100
AcDbLine
 10
46.98677265047203
 20
53.67334808635876
 30
0.0
 11
48.52481479833101
 21
55.86990008344924
 31
0.0
  0
LINE
  5
194
330
1F
100
AcDbEntity
  8
Default
100
AcDbLine
 10
30.26745479833102
 20
51.62726008344923
 30
0.0
 11
37.76745479833102
 21
22.15269508344923
 31
0.0
  0
SPLINE
  5
195
330
1F
100
AcDbEntity
  8
Default
100
AcDbSpline
210
0.0
220
0.0
230
1.0
 70
     8
 71
     2
 72
     6
 73
     3
 74
     0
 42
0.0000000001
 43
0.0000000001
 40
0.0
 40
0.0
 40
0.0
 40
1.0
 40
1.0
 40
1.0
 10
14.48308979833102
 20
54.11755508344923
 30
0.0
 10
14.94872979833102
 20
51.47679508344923
 30
0.0
 10
14.36834479833102
 20
48.85886008344923
 30
0.0
  0
SPLINE
  5
196
330
1F
100
AcDbEntity
  8
Default
100
AcDbSpline
210
0.0
220
0.0
230
1.0
 70
     8
 71
     2
 72
     6
 73
     3
 74
     0
 42
0.0000000001
 43
0.0000000001
 40
0.0
 40
0.0
 40
0.0
 40
1.0
 40
1.0
 40
1.0
 10
7.551819798331016
 20
54.11755508344923
 30
0.0
 10
7.086179798331017
 20
51.47679508344923
 30
0.0
 10
7.666564798331017
 20
48.85886008344923
 30
0.0
  0
LINE
  5
197
330
1F
100
AcDbEntity
  8
Layer 01
100
AcDbLine
 10
27.76745479833102
 20
32.62726008344923
 30
0.0
 11
67.76745479833102
 21
32.62726008344923
 31
0.0
  0
LINE
  5
198
330
1F
100
AcDbEntity
  8
Layer 01
100
AcDbLine
 10
98.82892906815022
 20
72.66122492754523
 30
0.0
 11
98.82892906815022
 21
22.66122492754522
 31
0.0
  0
LINE
  5
199
330
1F
100
AcDbEntity
  8
Layer 01
100
AcDbLine
 10
97.82892906815022
 20
72.66122492754523
 30
0.0
 11
97.82892906815022
 21
22.66122492754522
 31
0.0
  0
LINE
  5
19A
330
1F
100
AcDbEntity
  8
Layer 01
100
AcDbLine
 10
69.82892906815022
 20
36.66122492754522
 30
0.0
 11
109.8289290681502
 21
36.66122492754522
 31
0.0
  0
LINE
  5
19B
330
1F
100
AcDbEntity
  8
Layer 01
100
AcDbLine
 10
69.82892906815022
 20
39.66122492754522
 30
0.0
 11
109.8289290681502
 21
39.66122492754522
 31
0.0
  0
LINE
  5
19C
330
1F
100
AcDbEntity
  8
Layer 01
100
AcDbLine
 10
69.82892906815022
 20
40.66122492754522
 30
0.0
 11
109.8289290681502
 21
40.66122492754522
 31
0.0
  0
LINE
  5
19D
330
1F
100
AcDbEntity
  8
Layer 01
100
AcDbLine
 10
69.82892906815022
 20
41.66122492754522
 30
0.0
 11
109.8289290681502
 21
41.66122492754522
 31
0.0
  0
LINE
  5
19E
330
1F
100
AcDbEntity
  8
Layer 01
100
AcDbLine
 10
69.82892906815022
 20
44.66122492754522
 30
0.0
 11
109.8289290681502
 21
44.66122492754522
 31
0.0
  0
LINE
  5
19F
330
1F
100
AcDbEntity
  8
Layer 01
100
AcDbLine
 10
69.82892906815022
 20
47.66122492754522
 30
0.0
 11
109.8289290681502
 21
47.66122492754522
 31
0.0
  0
LINE
  5
1A0
330
1F
100
AcDbEntity
  8
Layer 01
100
AcDbLine
 10
69.82892906815022
 20
50.66122492754522
 30
0.0
 11
109.8289290681502
 21
50.66122492754522
 31
0.0
  0
LINE
  5
1A1
330
1F
100
AcDbEntity
  8
Layer 01
100
AcDbLine
 10
69.82892906815022
 20
53.66122492754522
 30
0.0
 11
109.8289290681502
 21
53.66122492754522
 31
0.0
  0
LINE
  5
1A2
330
1F
100
AcDbEntity
  8
Layer 01
100
AcDbLine
 10
69.82892906815022
 20
57.66122492754522
 30
0.0
 11
109.8289290681502
 21
57.66122492754522
 31
0.0
  0
LINE
  5
1A3
330
1F
100
AcDbEntity
  8
Layer 01
100
AcDbLine
 10
69.82892906815022
 20
60.66122492754522
 30
0.0
 11
109.8289290681502
 21
60.66122492754522
 31
0.0
  0
LINE
  5
1A4
330
1F
100
AcDbEntity
  8
Layer 01
100
AcDbLine
 10
69.82892906815022
 20
63.66122492754522
 30
0.0
 11
109.8289290681502
 21
63.66122492754522
 31
0.0
  0
LINE
  5
1A5
330
1F
100
AcDbEntity
  8
Layer 01
100
AcDbLine
 10
69.82892906815022
 20
66.66122492754522
 30
0.0
 11
109.8289290681502
 21
66.66122492754522
 31
0.0
  0
LINE
  5
1A6
330
1F
100
AcDbEntity
  8
Layer 01
100
AcDbLine
 10
69.82892906815022
 20
69.66122492754523
 30
0.0
 11
109.8289290681502
 21
69.66122492754523
 31
0.0
  0
LINE
  5
1A7
330
1F
100
AcDbEntity
  8
Layer 01
100
AcDbLine
 10
69.82892906815022
 20
71.66122492754523
 30
0.0
 11
109.8289290681502
 21
71.66122492754523
 31
0.0
  0
LINE
  5
1A8
330
1F
100
AcDbEntity
  8
Layer 01
100
AcDbLine
 10
69.82892906815022
 20
33.66122492754522
 30
0.0
 11
109.8289290681502
 21
33.66122492754522
 31
0.0
  0
LINE
  5
1A9
330
1F
100
AcDbEntity
  8
Layer 01
100
AcDbLine
 10
69.82892906815022
 20
35.66122492754522
 30
0.0
 11
109.8289290681502
 21
35.66122492754522
 31
0.0
  0
LINE
  5
1AA
330
1F
100
AcDbEntity
  8
Layer 01
100
AcDbLine
 10
69.82892906815022
 20
34.66122492754522
 30
0.0
 11
109.8289290681502
 21
34.66122492754522
 31
0.0
  0
LINE
  5
1AB
330
1F
100
AcDbEntity
  8
Layer 01
100
AcDbLine
 10
69.82892906815022
 20
43.66122492754522
 30
0.0
 11
109.8289290681502
 21
43.66122492754522
 31
0.0
  0
LINE
  5
1AC
330
1F
100
AcDbEntity
  8
Layer 01
100
AcDbLine
 10
69.82892906815022
 20
46.66122492754522
 30
0.0
 11
109.8289290681502
 21
46.66122492754522
 31
0.0
  0
LINE
  5
1AD
330
1F
100
AcDbEntity
  8
Layer 01
100
AcDbLine
 10
69.82892906815022
 20
49.66122492754522
 30
0.0
 11
109.8289290681502
 21
49.66122492754522
 31
0.0
  0
LINE
  5
1AE
330
1F
100
AcDbEntity
  8
Layer 01
100
AcDbLine
 10
69.82892906815022
 20
52.66122492754522
 30
0.0
 11
109.8289290681502
 21
52.66122492754522
 31
0.0
  0
LINE
  5
1AF
330
1F
100
AcDbEntity
  8
Layer 01
100
AcDbLine
 10
69.82892906815022
 20
37.66122492754522
 30
0.0
 11
109.8289290681502
 21
37.66122492754522
 31
0.0
  0
LINE
  5
1B0
330
1F
100
AcDbEntity
  8
Layer 01
100
AcDbLine
 10
69.82892906815022
 20
56.66122492754522
 30
0.0
 11
109.8289290681502
 21
56.66122492754522
 31
0.0
  0
LINE
  5
1B1
330
1F
100
AcDbEntity
  8
Layer 01
100
AcDbLine
 10
69.82892906815022
 20
59.66122492754522
 30
0.0
 11
109.8289290681502
 21
59.66122492754522
 31
0.0
  0
LINE
  5
1B2
330
1F
100
AcDbEntity
  8
Layer 01
100
AcDbLine
 10
69.82892906815022
 20
62.66122492754522
 30
0.0
 11
109.8289290681502
 21
62.66122492754522
 31
0.0
  0
LINE
  5
1B3
330
1F
100
AcDbEntity
  8
Layer 01
100
AcDbLine
 10
69.82892906815022
 20
65.66122492754522
 30
0.0
 11
109.8289290681502
 21
65.66122492754522
 31
0.0
  0
LINE
  5
1B4
330
1F
100
AcDbEntity
  8
Layer 01
100
AcDbLine
 10
69.82892906815022
 20
68.66122492754523
 30
0.0
 11
109.8289290681502
 21
68.66122492754523
 31
0.0
  0
LINE
  5
1B5
330
1F
100
AcDbEntity
  8
Layer 01
100
AcDbLine
 10
85.82892906815022
 20
72.66122492754523
 30
0.0
 11
85.82892906815022
 21
22.66122492754522
 31
0.0
  0
LINE
  5
1B6
330
1F
100
AcDbEntity
  8
Layer 01
100
AcDbLine
 10
104.8289290681502
 20
72.66122492754523
 30
0.0
 11
104.8289290681502
 21
22.66122492754522
 31
0.0
  0
LINE
  5
1B7
330
1F
100
AcDbEntity
  8
Layer 01
100
AcDbLine
 10
82.82892906815022
 20
72.66122492754523
 30
0.0
 11
82.82892906815022
 21
22.66122492754522
 31
0.0
  0
LINE
  5
1B8
330
1F
100
AcDbEntity
  8
Layer 01
100
AcDbLine
 10
79.82892906815022
 20
72.66122492754523
 30
0.0
 11
79.82892906815022
 21
22.66122492754522
 31
0.0
  0
LINE
  5
1B9
330
1F
100
AcDbEntity
  8
Layer 01
100
AcDbLine
 10
83.82892906815022
 20
72.66122492754523
 30
0.0
 11
83.82892906815022
 21
22.66122492754522
 31
0.0
  0
LINE
  5
1BA
330
1F
100
AcDbEntity
  8
Layer 01
100
AcDbLine
 10
69.82892906815022
 20
48.66122492754522
 30
0.0
 11
109.8289290681502
 21
48.66122492754522
 31
0.0
  0
LINE
  5
1BB
330
1F
100
AcDbEntity
  8
Layer 01
100
AcDbLine
 10
84.82892906815022
 20
72.66122492754523
 30
0.0
 11
84.82892906815022
 21
22.66122492754522
 31
0.0
  0
LINE
  5
1BC
330
1F
100
AcDbEntity
  8
Layer 01
100
AcDbLine
 10
73.82892906815022
 20
72.66122492754523
 30
0.0
 11
73.82892906815022
 21
22.66122492754522
 31
0.0
  0
LINE
  5
1BD
330
1F
100
AcDbEntity
  8
Layer 01
100
AcDbLine
 10
69.82892906815022
 20
51.66122492754522
 30
0.0
 11
109.8289290681502
 21
51.66122492754522
 31
0.0
  0
LINE
  5
1BE
330
1F
100
AcDbEntity
  8
Layer 01
100
AcDbLine
 10
76.82892906815022
 20
72.66122492754523
 30
0.0
 11
76.82892906815022
 21
22.66122492754522
 31
0.0
  0
LINE
  5
1BF
330
1F
100
AcDbEntity
  8
Layer 01
100
AcDbLine
 10
105.8289290681502
 20
72.66122492754523
 30
0.0
 11
105.8289290681502
 21
22.66122492754522
 31
0.0
  0
LINE
  5
1C0
330
1F
100
AcDbEntity
  8
Layer 01
100
AcDbLine
 10
69.82892906815022
 20
55.66122492754522
 30
0.0
 11
109.8289290681502
 21
55.66122492754522
 31
0.0
  0
LINE
  5
1C1
330
1F
100
AcDbEntity
  8
Layer 01
100
AcDbLine
 10
107.8289290681502
 20
72.66122492754523
 30
0.0
 11
107.8289290681502
 21
22.66122492754522
 31
0.0
  0
LINE
  5
1C2
330
1F
100
AcDbEntity
  8
Layer 01
100
AcDbLine
 10
103.8289290681502
 20
72.66122492754523
 30
0.0
 11
103.8289290681502
 21
22.66122492754522
 31
0.0
  0
LINE
  5
1C3
330
1F
100
AcDbEntity
  8
Layer 01
100
AcDbLine
 10
80.82892906815022
 20
72.66122492754523
 30
0.0
 11
80.82892906815022
 21
22.66122492754522
 31
0.0
  0
LINE
  5
1C4
330
1F
100
AcDbEntity
  8
Layer 01
100
AcDbLine
 10
75.82892906815022
 20
72.66122492754523
 30
0.0
 11
75.82892906815022
 21
22.66122492754522
 31
0.0
  0
POLYLINE
  5
1C5
330
1F
100
AcDbEntity
  8
Default
100
AcDb2dPolyline
 66
     1
 10
0.0
 20
0.0
 30
0.0
  0
VERTEX
  5
1C6
330
1C5
100
AcDbEntity
  8
Default
100
AcDbVertex
100
AcDb2dVertex
 10
76.93129346314325
 20
64.95326842837274
 30
0.0
  0
VERTEX
  5
1C7
330
1C5
100
AcDbEntity
  8
Default
100
AcDbVertex
100
AcDb2dVertex
 10
91.93129346314325
 20
64.95326842837274
 30
0.0
  0
SEQEND
  5
1C8
330
1C5
100
AcDbEntity
  8
Default
  0
POLYLINE
  5
1C9
330
1F
100
AcDbEntity
  8
Default
100
AcDb2dPolyline
 66
     1
 10
0.0
 20
0.0
 30
0.0
  0
VERTEX
  5
1CA
330
1C9
100
AcDbEntity
  8
Default
100
AcDbVertex
100
AcDb2dVertex
 10
91.93129346314325
 20
64.95326842837274
 30
0.0
  0
VERTEX
  5
1CB
330
1C9
100
AcDbEntity
  8
Default
100
AcDbVertex
100
AcDb2dVertex
 10
86.93129346314325
 20
44.95326842837274
 30
0.0
  0
VERTEX
  5
1CC
330
1C9
100
AcDbEntity
  8
Default
100
AcDbVertex
100
AcDb2dVertex
 10
81.93129346314325
 20
44.95326842837274
 30
0.0
  0
VERTEX
  5
1CD
330
1C9
100
AcDbEntity
  8
Default
100
AcDbVertex
100
AcDb2dVertex
 10
76.93129346314325
 20
64.95326842837274
 30
0.0
  0
SEQEND
  5
1CE
330
1C9
100
AcDbEntity
  8
Default
  0
LINE
  5
1CF
330
1F
100
AcDbEntity
  8
Layer 01
100
AcDbLine
 10
94.82892906815022
 20
72.66122492754523
 30
0.0
 11
94.82892906815022
 21
22.66122492754522
 31
0.0
  0
LINE
  5
1D0
330
1F
100
AcDbEntity
  8
Layer 01
100
AcDbLine
 10
87.82892906815022
 20
72.66122492754523
 30
0.0
 11
87.82892906815022
 21
22.66122492754522
 31
0.0
  0
LINE
  5
1D1
330
1F
100
AcDbEntity
  8
Layer 01
100
AcDbLine
 10
78.82892906815022
 20
72.66122492754523
 30
0.0
 11
78.82892906815022
 21
22.66122492754522
 31
0.0
  0
LINE
  5
1D2
330
1F
100
AcDbEntity
  8
Layer 01
100
AcDbLine
 10
72.82892906815022
 20
72.66122492754523
 30
0.0
 11
72.82892906815022
 21
22.66122492754522
 31
0.0
  0
LINE
  5
1D3
330
1F
100
AcDbEntity
  8
Layer 01
100
AcDbLine
 10
106.8289290681502
 20
72.66122492754523
 30
0.0
 11
106.8289290681502
 21
22.66122492754522
 31
0.0
  0
LINE
  5
1D4
330
1F
100
AcDbEntity
  8
Layer 01
100
AcDbLine
 10
102.8289290681502
 20
72.66122492754523
 30
0.0
 11
102.8289290681502
 21
22.66122492754522
 31
0.0
  0
LINE
  5
1D5
330
1F
100
AcDbEntity
  8
Layer 01
100
AcDbLine
 10
101.8289290681502
 20
72.66122492754523
 30
0.0
 11
101.8289290681502
 21
22.66122492754522
 31
0.0
  0
LINE
  5
1D6
330
1F
100
AcDbEntity
  8
Layer 01
100
AcDbLine
 10
89.82892906815022
 20
72.66122492754523
 30
0.0
 11
89.82892906815022
 21
22.66122492754522
 31
0.0
  0
LINE
  5
1D7
330
1F
100
AcDbEntity
  8
Layer 01
100
AcDbLine
 10
69.82892906815022
 20
38.66122492754522
 30
0.0
 11
109.8289290681502
 21
38.66122492754522
 31
0.0
  0
POLYLINE
  5
1D8
330
1F
100
AcDbEntity
  8
Default
100
AcDb2dPolyline
 66
     1
 10
0.0
 20
0.0
 30
0.0
  0
VERTEX
  5
1D9
330
1D8
100
AcDbEntity
  8
Default
100
AcDbVertex
100
AcDb2dVertex
 10
85.93129346314325
 20
28.95326842837273
 30
0.0
  0
VERTEX
  5
1DA
330
1D8
100
AcDbEntity
  8
Default
100
AcDbVertex
100
AcDb2dVertex
 10
90.93129346314325
 20
58.95326842837274
 30
0.0
  0
VERTEX
  5
1DB
330
1D8
100
AcDbEntity
  8
Default
100
AcDbVertex
100
AcDb2dVertex
 10
95.93129346314325
 20
58.95326842837274
 30
0.0
  0
VERTEX
  5
1DC
330
1D8
100
AcDbEntity
  8
Default
100
AcDbVertex
100
AcDb2dVertex
 10
100.9312934631432
 20
28.95326842837273
 30
0.0
  0
SEQEND
  5
1DD
330
1D8
100
AcDbEntity
  8
Default
  0
POLYLINE
  5
1DE
330
1F
100
AcDbEntity
  8
Default
100
AcDb2dPolyline
 66
     1
 10
0.0
 20
0.0
 30
0.0
  0
VERTEX
  5
1DF
330
1DE
100
AcDbEntity
  8
Default
100
AcDbVertex
100
AcDb2dVertex
 10
100.9312934631432
 20
28.95326842837273
 30
0.0
  0
VERTEX
  5
1E0
330
1DE
100
AcDbEntity
  8
Default
100
AcDbVertex
100
AcDb2dVertex
 10
85.93129346314325
 20
28.95326842837273
 30
0.0
  0
SEQEND
  5
1E1
330
1DE
100
AcDbEntity
  8
Default
  0
POLYLINE
  5
1E2
330
1F
100
AcDbEntity
  8
Layer 02
100
AcDb2dPolyline
 66
     1
 10
0.0
 20
0.0
 30
0.0
  0
VERTEX
  5
1E3
330
1E2
100
AcDbEntity
  8
Layer 02
100
AcDbVertex
100
AcDb2dVertex
 10
74.18410830685076
 20
25.8858424518846
 30
0.0
  0
VERTEX
  5
1E4
330
1E2
100
AcDbEntity
  8
Layer 02
100
AcDbVertex
100
AcDb2dVertex
 10
103.8841083068508
 20
25.8858424518846
 30
0.0
  0
VERTEX
  5
1E5
330
1E2
100
AcDbEntity
  8
Layer 02
100
AcDbVertex
100
AcDb2dVertex
 10
103.8841083068508
 20
67.8858424518846
 30
0.0
  0
VERTEX
  5
1E6
330
1E2
100
AcDbEntity
  8
Layer 02
100
AcDbVertex
100
AcDb2dVertex
 10
74.18410830685076
 20
67.8858424518846
 30
0.0
  0
VERTEX
  5
1E7
330
1E2
100
AcDbEntity
  8
Layer 02
100
AcDbVertex
100
AcDb2dVertex
 10
74.18410830685076
 20
25.8858424518846
 30
0.0
  0
SEQEND
  5
1E8
330
1E2
100
AcDbEntity
  8
Layer 02
  0
LINE
  5
1E9
330
1F
100
AcDbEntity
  8
Layer 01
100
AcDbLine
 10
69.82892906815022
 20
54.66122492754522
 30
0.0
 11
109.8289290681502
 21
54.66122492754522
 31
0.0
  0
LINE
  5
1EA
330
1F
100
AcDbEntity
  8
Layer 01
100
AcDbLine
 10
108.8289290681502
 20
72.66122492754523
 30
0.0
 11
108.8289290681502
 21
22.66122492754522
 31
0.0
  0
LINE
  5
1EB
330
1F
100
AcDbEntity
  8
Layer 01
100
AcDbLine
 10
109.8289290681502
 20
72.66122492754523
 30
0.0
 11
109.8289290681502
 21
22.66122492754522
 31
0.0
  0
LINE
  5
1EC
330
1F
100
AcDbEntity
  8
Layer 01
100
AcDbLine
 10
81.82892906815022
 20
72.66122492754523
 30
0.0
 11
81.82892906815022
 21
22.66122492754522
 31
0.0
  0
LINE
  5
1ED
330
1F
100
AcDbEntity
  8
Layer 01
100
AcDbLine
 10
77.82892906815022
 20
72.66122492754523
 30
0.0
 11
77.82892906815022
 21
22.66122492754522
 31
0.0
  0
LINE
  5
1EE
330
1F
100
AcDbEntity
  8
Layer 01
100
AcDbLine
 10
74.82892906815022
 20
72.66122492754523
 30
0.0
 11
74.82892906815022
 21
22.66122492754522
 31
0.0
  0
LINE
  5
1EF
330
1F
100
AcDbEntity
  8
Layer 01
100
AcDbLine
 10
71.82892906815022
 20
72.66122492754523
 30
0.0
 11
71.82892906815022
 21
22.66122492754522
 31
0.0
  0
LINE
  5
1F0
330
1F
100
AcDbEntity
  8
Layer 01
100
AcDbLine
 10
86.82892906815022
 20
72.66122492754523
 30
0.0
 11
86.82892906815022
 21
22.66122492754522
 31
0.0
  0
LINE
  5
1F1
330
1F
100
AcDbEntity
  8
Layer 01
100
AcDbLine
 10
93.82892906815022
 20
72.66122492754523
 30
0.0
 11
93.82892906815022
 21
22.66122492754522
 31
0.0
  0
LINE
  5
1F2
330
1F
100
AcDbEntity
  8
Layer 01
100
AcDbLine
 10
70.82892906815022
 20
72.66122492754523
 30
0.0
 11
70.82892906815022
 21
22.66122492754522
 31
0.0
  0
LINE
  5
1F3
330
1F
100
AcDbEntity
  8
Layer 01
100
AcDbLine
 10
69.82892906815022
 20
72.66122492754523
 30
0.0
 11
69.82892906815022
 21
22.66122492754522
 31
0.0
  0
LINE
  5
1F4
330
1F
100
AcDbEntity
  8
Layer 01
100
AcDbLine
 10
95.82892906815022
 20
72.66122492754523
 30
0.0
 11
95.82892906815022
 21
22.66122492754522
 31
0.0
  0
LINE
  5
1F5
330
1F
100
AcDbEntity
  8
Layer 01
100
AcDbLine
 10
69.82892906815022
 20
25.66122492754522
 30
0.0
 11
109.8289290681502
 21
25.66122492754522
 31
0.0
  0
LINE
  5
1F6
330
1F
100
AcDbEntity
  8
Layer 01
100
AcDbLine
 10
69.82892906815022
 20
72.66122492754523
 30
0.0
 11
109.8289290681502
 21
72.66122492754523
 31
0.0
  0
LINE
  5
1F7
330
1F
100
AcDbEntity
  8
Layer 01
100
AcDbLine
 10
69.82892906815022
 20
22.66122492754522
 30
0.0
 11
109.8289290681502
 21
22.66122492754522
 31
0.0
  0
LINE
  5
1F8
330
1F
100
AcDbEntity
  8
Layer 01
100
AcDbLine
 10
69.82892906815022
 20
24.66122492754522
 30
0.0
 11
109.8289290681502
 21
24.66122492754522
 31
0.0
  0
LINE
  5
1F9
330
1F
100
AcDbEntity
  8
Layer 01
100
AcDbLine
 10
96.82892906815022
 20
72.66122492754523
 30
0.0
 11
96.82892906815022
 21
22.66122492754522
 31
0.0
  0
LINE
  5
1FA
330
1F
100
AcDbEntity
  8
Layer 01
100
AcDbLine
 10
69.82892906815022
 20
23.66122492754522
 30
0.0
 11
109.8289290681502
 21
23.66122492754522
 31
0.0
  0
LINE
  5
1FB
330
1F
100
AcDbEntity
  8
Layer 01
100
AcDbLine
 10
69.82892906815022
 20
26.66122492754522
 30
0.0
 11
109.8289290681502
 21
26.66122492754522
 31
0.0
  0
LINE
  5
1FC
330
1F
100
AcDbEntity
  8
Layer 01
100
AcDbLine
 10
69.82892906815022
 20
27.66122492754522
 30
0.0
 11
109.8289290681502
 21
27.66122492754522
 31
0.0
  0
LINE
  5
1FD
330
1F
100
AcDbEntity
  8
Layer 01
100
AcDbLine
 10
69.82892906815022
 20
28.66122492754522
 30
0.0
 11
109.8289290681502
 21
28.66122492754522
 31
0.0
  0
LINE
  5
1FE
330
1F
100
AcDbEntity
  8
Layer 01
100
AcDbLine
 10
69.82892906815022
 20
42.66122492754522
 30
0.0
 11
109.8289290681502
 21
42.66122492754522
 31
0.0
  0
LINE
  5
1FF
330
1F
100
AcDbEntity
  8
Layer 01
100
AcDbLine
 10
69.82892906815022
 20
45.66122492754522
 30
0.0
 11
109.8289290681502
 21
45.66122492754522
 31
0.0
  0
LINE
  5
200
330
1F
100
AcDbEntity
  8
Layer 01
100
AcDbLine
 10
100.8289290681502
 20
72.66122492754523
 30
0.0
 11
100.8289290681502
 21
22.66122492754522
 31
0.0
  0
LINE
  5
201
330
1F
100
AcDbEntity
  8
Layer 01
100
AcDbLine
 10
99.82892906815022
 20
72.66122492754523
 30
0.0
 11
99.82892906815022
 21
22.66122492754522
 31
0.0
  0
LINE
  5
202
330
1F
100
AcDbEntity
  8
Layer 01
100
AcDbLine
 10
91.82892906815022
 20
72.66122492754523
 30
0.0
 11
91.82892906815022
 21
22.66122492754522
 31
0.0
  0
LINE
  5
203
330
1F
100
AcDbEntity
  8
Layer 01
100
AcDbLine
 10
92.82892906815022
 20
72.66122492754523
 30
0.0
 11
92.82892906815022
 21
22.66122492754522
 31
0.0
  0
LINE
  5
204
330
1F
100
AcDbEntity
  8
Layer 01
100
AcDbLine
 10
-14.23254520166898
 20
45.62726008344923
 30
0.0
 11
25.76745479833102
 21
45.62726008344923
 31
0.0
  0
LINE
  5
205
330
1F
100
AcDbEntity
  8
Layer 01
100
AcDbLine
 10
-14.23254520166898
 20
42.62726008344923
 30
0.0
 11
25.76745479833102
 21
42.62726008344923
 31
0.0
  0
LINE
  5
206
330
1F
100
AcDbEntity
  8
Layer 01
100
AcDbLine
 10
-14.23254520166898
 20
39.62726008344923
 30
0.0
 11
25.76745479833102
 21
39.62726008344923
 31
0.0
  0
LINE
  5
207
330
1F
100
AcDbEntity
  8
Layer 01
100
AcDbLine
 10
-14.23254520166898
 20
30.62726008344923
 30
0.0
 11
25.76745479833102
 21
30.62726008344923
 31
0.0
  0
LINE
  5
208
330
1F
100
AcDbEntity
  8
Layer 01
100
AcDbLine
 10
-14.23254520166898
 20
31.62726008344923
 30
0.0
 11
25.76745479833102
 21
31.62726008344923
 31
0.0
  0
LINE
  5
209
330
1F
100
AcDbEntity
  8
Layer 01
100
AcDbLine
 10
-14.23254520166898
 20
29.62726008344923
 30
0.0
 11
25.76745479833102
 21
29.62726008344923
 31
0.0
  0
LINE
  5
20A
330
1F
100
AcDbEntity
  8
Layer 01
100
AcDbLine
 10
-14.23254520166898
 20
67.62726008344923
 30
0.0
 11
25.76745479833102
 21
67.62726008344923
 31
0.0
  0
LINE
  5
20B
330
1F
100
AcDbEntity
  8
Layer 01
100
AcDbLine
 10
-14.23254520166898
 20
65.62726008344923
 30
0.0
 11
25.76745479833102
 21
65.62726008344923
 31
0.0
  0
LINE
  5
20C
330
1F
100
AcDbEntity
  8
Layer 01
100
AcDbLine
 10
-14.23254520166898
 20
62.62726008344923
 30
0.0
 11
25.76745479833102
 21
62.62726008344923
 31
0.0
  0
LINE
  5
20D
330
1F
100
AcDbEntity
  8
Layer 01
100
AcDbLine
 10
-14.23254520166898
 20
59.62726008344923
 30
0.0
 11
25.76745479833102
 21
59.62726008344923
 31
0.0
  0
LINE
  5
20E
330
1F
100
AcDbEntity
  8
Layer 01
100
AcDbLine
 10
-14.23254520166898
 20
56.62726008344923
 30
0.0
 11
25.76745479833102
 21
56.62726008344923
 31
0.0
  0
LINE
  5
20F
330
1F
100
AcDbEntity
  8
Layer 01
100
AcDbLine
 10
-14.23254520166898
 20
53.62726008344923
 30
0.0
 11
25.76745479833102
 21
53.62726008344923
 31
0.0
  0
LINE
  5
210
330
1F
100
AcDbEntity
  8
Layer 01
100
AcDbLine
 10
-14.23254520166898
 20
49.62726008344923
 30
0.0
 11
25.76745479833102
 21
49.62726008344923
 31
0.0
  0
LINE
  5
211
330
1F
100
AcDbEntity
  8
Layer 01
100
AcDbLine
 10
-14.23254520166898
 20
46.62726008344923
 30
0.0
 11
25.76745479833102
 21
46.62726008344923
 31
0.0
  0
LINE
  5
212
330
1F
100
AcDbEntity
  8
Layer 01
100
AcDbLine
 10
-14.23254520166898
 20
43.62726008344923
 30
0.0
 11
25.76745479833102
 21
43.62726008344923
 31
0.0
  0
LINE
  5
213
330
1F
100
AcDbEntity
  8
Layer 01
100
AcDbLine
 10
-14.23254520166898
 20
40.62726008344923
 30
0.0
 11
25.76745479833102
 21
40.62726008344923
 31
0.0
  0
LINE
  5
214
330
1F
100
AcDbEntity
  8
Layer 01
100
AcDbLine
 10
-14.23254520166898
 20
37.62726008344923
 30
0.0
 11
25.76745479833102
 21
37.62726008344923
 31
0.0
  0
LINE
  5
215
330
1F
100
AcDbEntity
  8
Layer 01
100
AcDbLine
 10
-14.23254520166898
 20
36.62726008344923
 30
0.0
 11
25.76745479833102
 21
36.62726008344923
 31
0.0
  0
LINE
  5
216
330
1F
100
AcDbEntity
  8
Layer 01
100
AcDbLine
 10
-14.23254520166898
 20
35.62726008344923
 30
0.0
 11
25.76745479833102
 21
35.62726008344923
 31
0.0
  0
LINE
  5
217
330
1F
100
AcDbEntity
  8
Layer 01
100
AcDbLine
 10
-14.23254520166898
 20
32.62726008344923
 30
0.0
 11
25.76745479833102
 21
32.62726008344923
 31
0.0
  0
LINE
  5
218
330
1F
100
AcDbEntity
  8
Layer 01
100
AcDbLine
 10
-14.23254520166898
 20
50.62726008344923
 30
0.0
 11
25.76745479833102
 21
50.62726008344923
 31
0.0
  0
LINE
  5
219
330
1F
100
AcDbEntity
  8
Layer 01
100
AcDbLine
 10
-14.23254520166898
 20
66.62726008344923
 30
0.0
 11
25.76745479833102
 21
66.62726008344923
 31
0.0
  0
LINE
  5
21A
330
1F
100
AcDbEntity
  8
Layer 01
100
AcDbLine
 10
-14.23254520166898
 20
57.62726008344923
 30
0.0
 11
25.76745479833102
 21
57.62726008344923
 31
0.0
  0
LINE
  5
21B
330
1F
100
AcDbEntity
  8
Layer 01
100
AcDbLine
 10
-14.23254520166898
 20
63.62726008344923
 30
0.0
 11
25.76745479833102
 21
63.62726008344923
 31
0.0
  0
LINE
  5
21C
330
1F
100
AcDbEntity
  8
Layer 01
100
AcDbLine
 10
-14.23254520166898
 20
60.62726008344923
 30
0.0
 11
25.76745479833102
 21
60.62726008344923
 31
0.0
  0
LINE
  5
21D
330
1F
100
AcDbEntity
  8
Layer 01
100
AcDbLine
 10
-14.23254520166898
 20
51.62726008344923
 30
0.0
 11
25.76745479833102
 21
51.62726008344923
 31
0.0
  0
LINE
  5
21E
330
1F
100
AcDbEntity
  8
Layer 01
100
AcDbLine
 10
-14.23254520166898
 20
54.62726008344923
 30
0.0
 11
25.76745479833102
 21
54.62726008344923
 31
0.0
  0
LINE
  5
21F
330
1F
100
AcDbEntity
  8
Layer 01
100
AcDbLine
 10
69.82892906815022
 20
32.66122492754522
 30
0.0
 11
109.8289290681502
 21
32.66122492754522
 31
0.0
  0
LINE
  5
220
330
1F
100
AcDbEntity
  8
Layer 01
100
AcDbLine
 10
69.82892906815022
 20
67.66122492754522
 30
0.0
 11
109.8289290681502
 21
67.66122492754522
 31
0.0
  0
LINE
  5
221
330
1F
100
AcDbEntity
  8
Layer 01
100
AcDbLine
 10
69.82892906815022
 20
70.66122492754523
 30
0.0
 11
109.8289290681502
 21
70.66122492754523
 31
0.0
  0
LINE
  5
222
330
1F
100
AcDbEntity
  8
Layer 01
100
AcDbLine
 10
69.82892906815022
 20
31.66122492754522
 30
0.0
 11
109.8289290681502
 21
31.66122492754522
 31
0.0
  0
LINE
  5
223
330
1F
100
AcDbEntity
  8
Layer 01
100
AcDbLine
 10
-14.23254520166898
 20
48.62726008344923
 30
0.0
 11
25.76745479833102
 21
48.62726008344923
 31
0.0
  0
LINE
  5
224
330
1F
100
AcDbEntity
  8
Layer 01
100
AcDbLine
 10
69.82892906815022
 20
58.66122492754522
 30
0.0
 11
109.8289290681502
 21
58.66122492754522
 31
0.0
  0
LINE
  5
225
330
1F
100
AcDbEntity
  8
Layer 01
100
AcDbLine
 10
69.82892906815022
 20
61.66122492754522
 30
0.0
 11
109.8289290681502
 21
61.66122492754522
 31
0.0
  0
LINE
  5
226
330
1F
100
AcDbEntity
  8
Layer 01
100
AcDbLine
 10
69.82892906815022
 20
64.66122492754522
 30
0.0
 11
109.8289290681502
 21
64.66122492754522
 31
0.0
  0
LINE
  5
227
330
1F
100
AcDbEntity
  8
Layer 01
100
AcDbLine
 10
-14.23254520166898
 20
22.62726008344923
 30
0.0
 11
25.76745479833102
 21
22.62726008344923
 31
0.0
  0
LINE
  5
228
330
1F
100
AcDbEntity
  8
Layer 01
100
AcDbLine
 10
-14.23254520166898
 20
68.62726008344923
 30
0.0
 11
25.76745479833102
 21
68.62726008344923
 31
0.0
  0
LINE
  5
229
330
1F
100
AcDbEntity
  8
Layer 01
100
AcDbLine
 10
-14.23254520166898
 20
20.62726008344923
 30
0.0
 11
25.76745479833102
 21
20.62726008344923
 31
0.0
  0
LINE
  5
22A
330
1F
100
AcDbEntity
  8
Layer 01
100
AcDbLine
 10
-14.23254520166898
 20
19.62726008344923
 30
0.0
 11
25.76745479833102
 21
19.62726008344923
 31
0.0
  0
LINE
  5
22B
330
1F
100
AcDbEntity
  8
Layer 01
100
AcDbLine
 10
-14.23254520166898
 20
18.62726008344923
 30
0.0
 11
25.76745479833102
 21
18.62726008344923
 31
0.0
  0
LINE
  5
22C
330
1F
100
AcDbEntity
  8
Layer 01
100
AcDbLine
 10
-14.23254520166898
 20
21.62726008344923
 30
0.0
 11
25.76745479833102
 21
21.62726008344923
 31
0.0
  0
LINE
  5
22D
330
1F
100
AcDbEntity
  8
Layer 01
100
AcDbLine
 10
-14.23254520166898
 20
27.62726008344923
 30
0.0
 11
25.76745479833102
 21
27.62726008344923
 31
0.0
  0
LINE
  5
22E
330
1F
100
AcDbEntity
  8
Layer 01
100
AcDbLine
 10
-14.23254520166898
 20
68.62726008344923
 30
0.0
 11
-14.23254520166898
 21
18.62726008344923
 31
0.0
  0
LINE
  5
22F
330
1F
100
AcDbEntity
  8
Layer 01
100
AcDbLine
 10
-14.23254520166898
 20
64.62726008344923
 30
0.0
 11
25.76745479833102
 21
64.62726008344923
 31
0.0
  0
LINE
  5
230
330
1F
100
AcDbEntity
  8
Layer 01
100
AcDbLine
 10
-14.23254520166898
 20
61.62726008344923
 30
0.0
 11
25.76745479833102
 21
61.62726008344923
 31
0.0
  0
LINE
  5
231
330
1F
100
AcDbEntity
  8
Layer 01
100
AcDbLine
 10
-14.23254520166898
 20
58.62726008344923
 30
0.0
 11
25.76745479833102
 21
58.62726008344923
 31
0.0
  0
LINE
  5
232
330
1F
100
AcDbEntity
  8
Layer 01
100
AcDbLine
 10
-14.23254520166898
 20
55.62726008344923
 30
0.0
 11
25.76745479833102
 21
55.62726008344923
 31
0.0
  0
LINE
  5
233
330
1F
100
AcDbEntity
  8
Layer 01
100
AcDbLine
 10
-14.23254520166898
 20
52.62726008344923
 30
0.0
 11
25.76745479833102
 21
52.62726008344923
 31
0.0
  0
LINE
  5
234
330
1F
100
AcDbEntity
  8
Layer 01
100
AcDbLine
 10
-14.23254520166898
 20
33.62726008344923
 30
0.0
 11
25.76745479833102
 21
33.62726008344923
 31
0.0
  0
LINE
  5
235
330
1F
100
AcDbEntity
  8
Layer 01
100
AcDbLine
 10
-14.23254520166898
 20
47.62726008344923
 30
0.0
 11
25.76745479833102
 21
47.62726008344923
 31
0.0
  0
LINE
  5
236
330
1F
100
AcDbEntity
  8
Layer 01
100
AcDbLine
 10
19.76745479833102
 20
68.62726008344923
 30
0.0
 11
19.76745479833102
 21
18.62726008344923
 31
0.0
  0
LINE
  5
237
330
1F
100
AcDbEntity
  8
Layer 01
100
AcDbLine
 10
20.76745479833102
 20
68.62726008344923
 30
0.0
 11
20.76745479833102
 21
18.62726008344923
 31
0.0
  0
LINE
  5
238
330
1F
100
AcDbEntity
  8
Layer 01
100
AcDbLine
 10
21.76745479833102
 20
68.62726008344923
 30
0.0
 11
21.76745479833102
 21
18.62726008344923
 31
0.0
  0
LINE
  5
239
330
1F
100
AcDbEntity
  8
Layer 01
100
AcDbLine
 10
-10.23254520166898
 20
68.62726008344923
 30
0.0
 11
-10.23254520166898
 21
18.62726008344923
 31
0.0
  0
LINE
  5
23A
330
1F
100
AcDbEntity
  8
Layer 01
100
AcDbLine
 10
-7.232545201668984
 20
68.62726008344923
 30
0.0
 11
-7.232545201668984
 21
18.62726008344923
 31
0.0
  0
LINE
  5
23B
330
1F
100
AcDbEntity
  8
Layer 01
100
AcDbLine
 10
-4.232545201668984
 20
68.62726008344923
 30
0.0
 11
-4.232545201668984
 21
18.62726008344923
 31
0.0
  0
LINE
  5
23C
330
1F
100
AcDbEntity
  8
Layer 01
100
AcDbLine
 10
-1.232545201668984
 20
68.62726008344923
 30
0.0
 11
-1.232545201668984
 21
18.62726008344923
 31
0.0
  0
LINE
  5
23D
330
1F
100
AcDbEntity
  8
Layer 01
100
AcDbLine
 10
-0.2325452016689837
 20
68.62726008344923
 30
0.0
 11
-0.2325452016689837
 21
18.62726008344923
 31
0.0
  0
LINE
  5
23E
330
1F
100
AcDbEntity
  8
Layer 01
100
AcDbLine
 10
0.7674547983310163
 20
68.62726008344923
 30
0.0
 11
0.7674547983310163
 21
18.62726008344923
 31
0.0
  0
LINE
  5
23F
330
1F
100
AcDbEntity
  8
Layer 01
100
AcDbLine
 10
13.76745479833102
 20
68.62726008344923
 30
0.0
 11
13.76745479833102
 21
18.62726008344923
 31
0.0
  0
LINE
  5
240
330
1F
100
AcDbEntity
  8
Layer 01
100
AcDbLine
 10
1.767454798331016
 20
68.62726008344923
 30
0.0
 11
1.767454798331016
 21
18.62726008344923
 31
0.0
  0
LINE
  5
241
330
1F
100
AcDbEntity
  8
Layer 01
100
AcDbLine
 10
2.767454798331016
 20
68.62726008344923
 30
0.0
 11
2.767454798331016
 21
18.62726008344923
 31
0.0
  0
LINE
  5
242
330
1F
100
AcDbEntity
  8
Layer 01
100
AcDbLine
 10
4.767454798331016
 20
68.62726008344923
 30
0.0
 11
4.767454798331016
 21
18.62726008344923
 31
0.0
  0
LINE
  5
243
330
1F
100
AcDbEntity
  8
Layer 01
100
AcDbLine
 10
5.767454798331016
 20
68.62726008344923
 30
0.0
 11
5.767454798331016
 21
18.62726008344923
 31
0.0
  0
LINE
  5
244
330
1F
100
AcDbEntity
  8
Layer 01
100
AcDbLine
 10
-14.23254520166898
 20
44.62726008344923
 30
0.0
 11
25.76745479833102
 21
44.62726008344923
 31
0.0
  0
LINE
  5
245
330
1F
100
AcDbEntity
  8
Layer 01
100
AcDbLine
 10
-14.23254520166898
 20
41.62726008344923
 30
0.0
 11
25.76745479833102
 21
41.62726008344923
 31
0.0
  0
LINE
  5
246
330
1F
100
AcDbEntity
  8
Layer 01
100
AcDbLine
 10
-14.23254520166898
 20
38.62726008344923
 30
0.0
 11
25.76745479833102
 21
38.62726008344923
 31
0.0
  0
LINE
  5
247
330
1F
100
AcDbEntity
  8
Layer 01
100
AcDbLine
 10
-14.23254520166898
 20
34.62726008344923
 30
0.0
 11
25.76745479833102
 21
34.62726008344923
 31
0.0
  0
LINE
  5
248
330
1F
100
AcDbEntity
  8
Layer 01
100
AcDbLine
 10
-11.23254520166898
 20
68.62726008344923
 30
0.0
 11
-11.23254520166898
 21
18.62726008344923
 31
0.0
  0
LINE
  5
249
330
1F
100
AcDbEntity
  8
Layer 01
100
AcDbLine
 10
-8.232545201668984
 20
68.62726008344923
 30
0.0
 11
-8.232545201668984
 21
18.62726008344923
 31
0.0
  0
LINE
  5
24A
330
1F
100
AcDbEntity
  8
Layer 01
100
AcDbLine
 10
-5.232545201668984
 20
68.62726008344923
 30
0.0
 11
-5.232545201668984
 21
18.62726008344923
 31
0.0
  0
LINE
  5
24B
330
1F
100
AcDbEntity
  8
Layer 01
100
AcDbLine
 10
-3.232545201668984
 20
68.62726008344923
 30
0.0
 11
-3.232545201668984
 21
18.62726008344923
 31
0.0
  0
LINE
  5
24C
330
1F
100
AcDbEntity
  8
Layer 01
100
AcDbLine
 10
3.767454798331016
 20
68.62726008344923
 30
0.0
 11
3.767454798331016
 21
18.62726008344923
 31
0.0
  0
LINE
  5
24D
330
1F
100
AcDbEntity
  8
Layer 01
100
AcDbLine
 10
-14.23254520166898
 20
28.62726008344923
 30
0.0
 11
25.76745479833102
 21
28.62726008344923
 31
0.0
  0
LINE
  5
24E
330
1F
100
AcDbEntity
  8
Layer 01
100
AcDbLine
 10
6.767454798331016
 20
68.62726008344923
 30
0.0
 11
6.767454798331016
 21
18.62726008344923
 31
0.0
  0
LINE
  5
24F
330
1F
100
AcDbEntity
  8
Layer 01
100
AcDbLine
 10
7.767454798331016
 20
68.62726008344923
 30
0.0
 11
7.767454798331016
 21
18.62726008344923
 31
0.0
  0
LINE
  5
250
330
1F
100
AcDbEntity
  8
Layer 01
100
AcDbLine
 10
8.767454798331016
 20
68.62726008344923
 30
0.0
 11
8.767454798331016
 21
18.62726008344923
 31
0.0
  0
LINE
  5
251
330
1F
100
AcDbEntity
  8
Layer 01
100
AcDbLine
 10
9.767454798331016
 20
68.62726008344923
 30
0.0
 11
9.767454798331016
 21
18.62726008344923
 31
0.0
  0
LINE
  5
252
330
1F
100
AcDbEntity
  8
Layer 01
100
AcDbLine
 10
10.76745479833102
 20
68.62726008344923
 30
0.0
 11
10.76745479833102
 21
18.62726008344923
 31
0.0
  0
LINE
  5
253
330
1F
100
AcDbEntity
  8
Layer 01
100
AcDbLine
 10
11.76745479833102
 20
68.62726008344923
 30
0.0
 11
11.76745479833102
 21
18.62726008344923
 31
0.0
  0
LINE
  5
254
330
1F
100
AcDbEntity
  8
Layer 01
100
AcDbLine
 10
12.76745479833102
 20
68.62726008344923
 30
0.0
 11
12.76745479833102
 21
18.62726008344923
 31
0.0
  0
LINE
  5
255
330
1F
100
AcDbEntity
  8
Layer 01
100
AcDbLine
 10
24.76745479833102
 20
68.62726008344923
 30
0.0
 11
24.76745479833102
 21
18.62726008344923
 31
0.0
  0
LINE
  5
256
330
1F
100
AcDbEntity
  8
Layer 01
100
AcDbLine
 10
-13.23254520166898
 20
68.62726008344923
 30
0.0
 11
-13.23254520166898
 21
18.62726008344923
 31
0.0
  0
LINE
  5
257
330
1F
100
AcDbEntity
  8
Layer 01
100
AcDbLine
 10
-12.23254520166898
 20
68.62726008344923
 30
0.0
 11
-12.23254520166898
 21
18.62726008344923
 31
0.0
  0
LINE
  5
258
330
1F
100
AcDbEntity
  8
Layer 01
100
AcDbLine
 10
-9.232545201668984
 20
68.62726008344923
 30
0.0
 11
-9.232545201668984
 21
18.62726008344923
 31
0.0
  0
LINE
  5
259
330
1F
100
AcDbEntity
  8
Layer 01
100
AcDbLine
 10
-6.232545201668984
 20
68.62726008344923
 30
0.0
 11
-6.232545201668984
 21
18.62726008344923
 31
0.0
  0
LINE
  5
25A
330
1F
100
AcDbEntity
  8
Layer 01
100
AcDbLine
 10
-2.232545201668984
 20
68.62726008344923
 30
0.0
 11
-2.232545201668984
 21
18.62726008344923
 31
0.0
  0
LINE
  5
25B
330
1F
100
AcDbEntity
  8
Layer 01
100
AcDbLine
 10
25.76745479833102
 20
68.62726008344923
 30
0.0
 11
25.76745479833102
 21
18.62726008344923
 31
0.0
  0
LINE
  5
25C
330
1F
100
AcDbEntity
  8
Layer 01
100
AcDbLine
 10
16.76745479833102
 20
68.62726008344923
 30
0.0
 11
16.76745479833102
 21
18.62726008344923
 31
0.0
  0
LINE
  5
25D
330
1F
100
AcDbEntity
  8
Layer 01
100
AcDbLine
 10
17.76745479833102
 20
68.62726008344923
 30
0.0
 11
17.76745479833102
 21
18.62726008344923
 31
0.0
  0
LINE
  5
25E
330
1F
100
AcDbEntity
  8
Layer 01
100
AcDbLine
 10
18.76745479833102
 20
68.62726008344923
 30
0.0
 11
18.76745479833102
 21
18.62726008344923
 31
0.0
  0
LINE
  5
25F
330
1F
100
AcDbEntity
  8
Layer 01
100
AcDbLine
 10
22.76745479833102
 20
68.62726008344923
 30
0.0
 11
22.76745479833102
 21
18.62726008344923
 31
0.0
  0
LINE
  5
260
330
1F
100
AcDbEntity
  8
Layer 01
100
AcDbLine
 10
23.76745479833102
 20
68.62726008344923
 30
0.0
 11
23.76745479833102
 21
18.62726008344923
 31
0.0
  0
LINE
  5
261
330
1F
100
AcDbEntity
  8
Layer 01
100
AcDbLine
 10
90.82892906815022
 20
72.66122492754523
 30
0.0
 11
90.82892906815022
 21
22.66122492754522
 31
0.0
  0
LINE
  5
262
330
1F
100
AcDbEntity
  8
Layer 01
100
AcDbLine
 10
28.76745479833102
 20
63.62726008344923
 30
0.0
 11
28.76745479833102
 21
13.62726008344923
 31
0.0
  0
LINE
  5
263
330
1F
100
AcDbEntity
  8
Layer 01
100
AcDbLine
 10
27.76745479833102
 20
63.62726008344923
 30
0.0
 11
27.76745479833102
 21
13.62726008344923
 31
0.0
  0
LINE
  5
264
330
1F
100
AcDbEntity
  8
Layer 01
100
AcDbLine
 10
27.76745479833102
 20
23.62726008344923
 30
0.0
 11
67.76745479833102
 21
23.62726008344923
 31
0.0
  0
LINE
  5
265
330
1F
100
AcDbEntity
  8
Layer 01
100
AcDbLine
 10
27.76745479833102
 20
25.62726008344923
 30
0.0
 11
67.76745479833102
 21
25.62726008344923
 31
0.0
  0
LINE
  5
266
330
1F
100
AcDbEntity
  8
Layer 01
100
AcDbLine
 10
44.76745479833102
 20
63.62726008344923
 30
0.0
 11
44.76745479833102
 21
13.62726008344923
 31
0.0
  0
LINE
  5
267
330
1F
100
AcDbEntity
  8
Layer 01
100
AcDbLine
 10
27.76745479833102
 20
22.62726008344923
 30
0.0
 11
67.76745479833102
 21
22.62726008344923
 31
0.0
  0
LINE
  5
268
330
1F
100
AcDbEntity
  8
Layer 01
100
AcDbLine
 10
27.76745479833102
 20
24.62726008344923
 30
0.0
 11
67.76745479833102
 21
24.62726008344923
 31
0.0
  0
LINE
  5
269
330
1F
100
AcDbEntity
  8
Layer 01
100
AcDbLine
 10
59.76745479833102
 20
63.62726008344923
 30
0.0
 11
59.76745479833102
 21
13.62726008344923
 31
0.0
  0
LINE
  5
26A
330
1F
100
AcDbEntity
  8
Layer 01
100
AcDbLine
 10
58.76745479833102
 20
63.62726008344923
 30
0.0
 11
58.76745479833102
 21
13.62726008344923
 31
0.0
  0
LINE
  5
26B
330
1F
100
AcDbEntity
  8
Layer 01
100
AcDbLine
 10
14.76745479833102
 20
68.62726008344923
 30
0.0
 11
14.76745479833102
 21
18.62726008344923
 31
0.0
  0
LINE
  5
26C
330
1F
100
AcDbEntity
  8
Layer 01
100
AcDbLine
 10
57.76745479833102
 20
63.62726008344923
 30
0.0
 11
57.76745479833102
 21
13.62726008344923
 31
0.0
  0
LINE
  5
26D
330
1F
100
AcDbEntity
  8
Layer 01
100
AcDbLine
 10
56.76745479833102
 20
63.62726008344923
 30
0.0
 11
56.76745479833102
 21
13.62726008344923
 31
0.0
  0
LINE
  5
26E
330
1F
100
AcDbEntity
  8
Layer 01
100
AcDbLine
 10
55.76745479833102
 20
63.62726008344923
 30
0.0
 11
55.76745479833102
 21
13.62726008344923
 31
0.0
  0
LINE
  5
26F
330
1F
100
AcDbEntity
  8
Layer 01
100
AcDbLine
 10
54.76745479833102
 20
63.62726008344923
 30
0.0
 11
54.76745479833102
 21
13.62726008344923
 31
0.0
  0
LINE
  5
270
330
1F
100
AcDbEntity
  8
Layer 01
100
AcDbLine
 10
53.76745479833102
 20
63.62726008344923
 30
0.0
 11
53.76745479833102
 21
13.62726008344923
 31
0.0
  0
LINE
  5
271
330
1F
100
AcDbEntity
  8
Layer 01
100
AcDbLine
 10
52.76745479833102
 20
63.62726008344923
 30
0.0
 11
52.76745479833102
 21
13.62726008344923
 31
0.0
  0
LINE
  5
272
330
1F
100
AcDbEntity
  8
Layer 01
100
AcDbLine
 10
29.76745479833102
 20
63.62726008344923
 30
0.0
 11
29.76745479833102
 21
13.62726008344923
 31
0.0
  0
LINE
  5
273
330
1F
100
AcDbEntity
  8
Layer 01
100
AcDbLine
 10
51.76745479833102
 20
63.62726008344923
 30
0.0
 11
51.76745479833102
 21
13.62726008344923
 31
0.0
  0
LINE
  5
274
330
1F
100
AcDbEntity
  8
Layer 01
100
AcDbLine
 10
50.76745479833102
 20
63.62726008344923
 30
0.0
 11
50.76745479833102
 21
13.62726008344923
 31
0.0
  0
LINE
  5
275
330
1F
100
AcDbEntity
  8
Layer 01
100
AcDbLine
 10
49.76745479833102
 20
63.62726008344923
 30
0.0
 11
49.76745479833102
 21
13.62726008344923
 31
0.0
  0
LINE
  5
276
330
1F
100
AcDbEntity
  8
Layer 01
100
AcDbLine
 10
48.76745479833102
 20
63.62726008344923
 30
0.0
 11
48.76745479833102
 21
13.62726008344923
 31
0.0
  0
LINE
  5
277
330
1F
100
AcDbEntity
  8
Layer 01
100
AcDbLine
 10
47.76745479833102
 20
63.62726008344923
 30
0.0
 11
47.76745479833102
 21
13.62726008344923
 31
0.0
  0
LINE
  5
278
330
1F
100
AcDbEntity
  8
Layer 01
100
AcDbLine
 10
46.76745479833102
 20
63.62726008344923
 30
0.0
 11
46.76745479833102
 21
13.62726008344923
 31
0.0
  0
LINE
  5
279
330
1F
100
AcDbEntity
  8
Layer 01
100
AcDbLine
 10
45.76745479833102
 20
63.62726008344923
 30
0.0
 11
45.76745479833102
 21
13.62726008344923
 31
0.0
  0
LINE
  5
27A
330
1F
100
AcDbEntity
  8
Layer 01
100
AcDbLine
 10
43.76745479833102
 20
63.62726008344923
 30
0.0
 11
43.76745479833102
 21
13.62726008344923
 31
0.0
  0
LINE
  5
27B
330
1F
100
AcDbEntity
  8
Layer 01
100
AcDbLine
 10
42.76745479833102
 20
63.62726008344923
 30
0.0
 11
42.76745479833102
 21
13.62726008344923
 31
0.0
  0
LINE
  5
27C
330
1F
100
AcDbEntity
  8
Layer 01
100
AcDbLine
 10
41.76745479833102
 20
63.62726008344923
 30
0.0
 11
41.76745479833102
 21
13.62726008344923
 31
0.0
  0
LINE
  5
27D
330
1F
100
AcDbEntity
  8
Layer 01
100
AcDbLine
 10
40.76745479833102
 20
63.62726008344923
 30
0.0
 11
40.76745479833102
 21
13.62726008344923
 31
0.0
  0
LINE
  5
27E
330
1F
100
AcDbEntity
  8
Layer 01
100
AcDbLine
 10
39.76745479833102
 20
63.62726008344923
 30
0.0
 11
39.76745479833102
 21
13.62726008344923
 31
0.0
  0
LINE
  5
27F
330
1F
100
AcDbEntity
  8
Layer 01
100
AcDbLine
 10
38.76745479833102
 20
63.62726008344923
 30
0.0
 11
38.76745479833102
 21
13.62726008344923
 31
0.0
  0
LINE
  5
280
330
1F
100
AcDbEntity
  8
Layer 01
100
AcDbLine
 10
37.76745479833102
 20
63.62726008344923
 30
0.0
 11
37.76745479833102
 21
13.62726008344923
 31
0.0
  0
LINE
  5
281
330
1F
100
AcDbEntity
  8
Layer 01
100
AcDbLine
 10
36.76745479833102
 20
63.62726008344923
 30
0.0
 11
36.76745479833102
 21
13.62726008344923
 31
0.0
  0
LINE
  5
282
330
1F
100
AcDbEntity
  8
Layer 01
100
AcDbLine
 10
35.76745479833102
 20
63.62726008344923
 30
0.0
 11
35.76745479833102
 21
13.62726008344923
 31
0.0
  0
LINE
  5
283
330
1F
100
AcDbEntity
  8
Layer 01
100
AcDbLine
 10
34.76745479833102
 20
63.62726008344923
 30
0.0
 11
34.76745479833102
 21
13.62726008344923
 31
0.0
  0
LINE
  5
284
330
1F
100
AcDbEntity
  8
Layer 01
100
AcDbLine
 10
33.76745479833102
 20
63.62726008344923
 30
0.0
 11
33.76745479833102
 21
13.62726008344923
 31
0.0
  0
LINE
  5
285
330
1F
100
AcDbEntity
  8
Layer 01
100
AcDbLine
 10
32.76745479833102
 20
63.62726008344923
 30
0.0
 11
32.76745479833102
 21
13.62726008344923
 31
0.0
  0
LINE
  5
286
330
1F
100
AcDbEntity
  8
Layer 01
100
AcDbLine
 10
31.76745479833102
 20
63.62726008344923
 30
0.0
 11
31.76745479833102
 21
13.62726008344923
 31
0.0
  0
LINE
  5
287
330
1F
100
AcDbEntity
  8
Layer 01
100
AcDbLine
 10
30.76745479833102
 20
63.62726008344923
 30
0.0
 11
30.76745479833102
 21
13.62726008344923
 31
0.0
  0
LINE
  5
288
330
1F
100
AcDbEntity
  8
Layer 01
100
AcDbLine
 10
27.76745479833102
 20
30.62726008344923
 30
0.0
 11
67.76745479833102
 21
30.62726008344923
 31
0.0
  0
LINE
  5
289
330
1F
100
AcDbEntity
  8
Layer 01
100
AcDbLine
 10
27.76745479833102
 20
34.62726008344923
 30
0.0
 11
67.76745479833102
 21
34.62726008344923
 31
0.0
  0
LINE
  5
28A
330
1F
100
AcDbEntity
  8
Layer 01
100
AcDbLine
 10
27.76745479833102
 20
35.62726008344923
 30
0.0
 11
67.76745479833102
 21
35.62726008344923
 31
0.0
  0
LINE
  5
28B
330
1F
100
AcDbEntity
  8
Layer 01
100
AcDbLine
 10
15.76745479833102
 20
68.62726008344923
 30
0.0
 11
15.76745479833102
 21
18.62726008344923
 31
0.0
  0
LINE
  5
28C
330
1F
100
AcDbEntity
  8
Layer 01
100
AcDbLine
 10
27.76745479833102
 20
36.62726008344923
 30
0.0
 11
67.76745479833102
 21
36.62726008344923
 31
0.0
  0
LINE
  5
28D
330
1F
100
AcDbEntity
  8
Layer 01
100
AcDbLine
 10
27.76745479833102
 20
37.62726008344923
 30
0.0
 11
67.76745479833102
 21
37.62726008344923
 31
0.0
  0
LINE
  5
28E
330
1F
100
AcDbEntity
  8
Default
100
AcDbLine
 10
40.68411979833101
 20
20.03240508344924
 30
0.0
 11
40.22867979833102
 21
22.17508008344923
 31
0.0
  0
LINE
  5
28F
330
1F
100
AcDbEntity
  8
Default
100
AcDbLine
 10
44.43411979833101
 20
20.70932008344924
 30
0.0
 11
42.80622979833102
 21
22.17508008344923
 31
0.0
  0
LINE
  5
290
330
1F
100
AcDbEntity
  8
Layer 01
100
AcDbLine
 10
27.76745479833102
 20
57.62726008344923
 30
0.0
 11
67.76745479833102
 21
57.62726008344923
 31
0.0
  0
LINE
  5
291
330
1F
100
AcDbEntity
  8
Layer 01
100
AcDbLine
 10
-14.23254520166898
 20
26.62726008344923
 30
0.0
 11
25.76745479833102
 21
26.62726008344923
 31
0.0
  0
POLYLINE
  5
292
330
1F
100
AcDbEntity
  8
Layer 02
100
AcDb2dPolyline
 66
     1
 10
0.0
 20
0.0
 30
0.0
  0
VERTEX
  5
293
330
292
100
AcDbEntity
  8
Layer 02
100
AcDbVertex
100
AcDb2dVertex
 10
-3.732545201668984
 20
24.12726008344923
 30
0.0
  0
VERTEX
  5
294
330
292
100
AcDbEntity
  8
Layer 02
100
AcDbVertex
100
AcDb2dVertex
 10
25.96745479833102
 20
24.12726008344923
 30
0.0
  0
VERTEX
  5
295
330
292
100
AcDbEntity
  8
Layer 02
100
AcDbVertex
100
AcDb2dVertex
 10
25.96745479833102
 20
66.12726008344923
 30
0.0
  0
VERTEX
  5
296
330
292
100
AcDbEntity
  8
Layer 02
100
AcDbVertex
100
AcDb2dVertex
 10
-3.732545201668984
 20
66.12726008344923
 30
0.0
  0
VERTEX
  5
297
330
292
100
AcDbEntity
  8
Layer 02
100
AcDbVertex
100
AcDb2dVertex
 10
-3.732545201668984
 20
24.12726008344923
 30
0.0
  0
SEQEND
  5
298
330
292
100
AcDbEntity
  8
Layer 02
  0
LINE
  5
299
330
1F
100
AcDbEntity
  8
Default
100
AcDbLine
 10
12.30622979833102
 20
32.44678008344923
 30
0.0
 11
13.93411979833101
 21
30.98102008344924
 31
0.0
  0
LINE
  5
29A
330
1F
100
AcDbEntity
  8
Default
100
AcDbLine
 10
45.26745479833102
 20
22.15269508344923
 30
0.0
 11
44.43411979833101
 21
20.70932008344924
 31
0.0
  0
LINE
  5
29B
330
1F
100
AcDbEntity
  8
Layer 01
100
AcDbLine
 10
27.76745479833102
 20
56.62726008344923
 30
0.0
 11
67.76745479833102
 21
56.62726008344923
 31
0.0
  0
LINE
  5
29C
330
1F
100
AcDbEntity
  8
Layer 01
100
AcDbLine
 10
27.76745479833102
 20
58.62726008344923
 30
0.0
 11
67.76745479833102
 21
58.62726008344923
 31
0.0
  0
LINE
  5
29D
330
1F
100
AcDbEntity
  8
Layer 01
100
AcDbLine
 10
27.76745479833102
 20
38.62726008344923
 30
0.0
 11
67.76745479833102
 21
38.62726008344923
 31
0.0
  0
LINE
  5
29E
330
1F
100
AcDbEntity
  8
Layer 01
100
AcDbLine
 10
27.76745479833102
 20
39.62726008344923
 30
0.0
 11
67.76745479833102
 21
39.62726008344923
 31
0.0
  0
LINE
  5
29F
330
1F
100
AcDbEntity
  8
Default
100
AcDbLine
 10
16.48676979833101
 20
53.67335008344924
 30
0.0
 11
14.48308979833102
 21
54.11755508344923
 31
0.0
  0
LINE
  5
2A0
330
1F
100
AcDbEntity
  8
Default
100
AcDbLine
 10
9.240314798331017
 20
32.00705008344924
 30
0.0
 11
9.865314798331013
 21
31.80398008344923
 31
0.0
  0
LINE
  5
2A1
330
1F
100
AcDbEntity
  8
Default
100
AcDbLine
 10
42.35078979833102
 20
20.03240508344924
 30
0.0
 11
40.68411979833101
 21
20.03240508344924
 31
0.0
  0
SPLINE
  5
2A2
330
1F
100
AcDbEntity
  8
Default
100
AcDbSpline
210
0.0
220
0.0
230
1.0
 70
     8
 71
     2
 72
     6
 73
     3
 74
     0
 42
0.0000000001
 43
0.0000000001
 40
0.0
 40
0.0
 40
0.0
 40
1.0
 40
1.0
 40
1.0
 10
44.98308979833102
 20
54.11755508344923
 30
0.0
 10
45.44872979833102
 20
51.47679508344923
 30
0.0
 10
44.86834479833102
 20
48.85886008344923
 30
0.0
  0
LINE
  5
2A3
330
1F
100
AcDbEntity
  8
Layer 01
100
AcDbLine
 10
-79.0
 20
4.0
 30
0.0
 11
-39.0
 21
4.0
 31
0.0
  0
LINE
  5
2A4
330
1F
100
AcDbEntity
  8
Layer 01
100
AcDbLine
 10
-79.0
 20
7.0
 30
0.0
 11
-39.0
 21
7.0
 31
0.0
  0
LINE
  5
2A5
330
1F
100
AcDbEntity
  8
Layer 01
100
AcDbLine
 10
-79.0
 20
10.0
 30
0.0
 11
-39.0
 21
10.0
 31
0.0
  0
LINE
  5
2A6
330
1F
100
AcDbEntity
  8
Layer 01
100
AcDbLine
 10
-79.0
 20
13.0
 30
0.0
 11
-39.0
 21
13.0
 31
0.0
  0
LINE
  5
2A7
330
1F
100
AcDbEntity
  8
Layer 01
100
AcDbLine
 10
-79.0
 20
16.0
 30
0.0
 11
-39.0
 21
16.0
 31
0.0
  0
LINE
  5
2A8
330
1F
100
AcDbEntity
  8
Layer 01
100
AcDbLine
 10
-79.0
 20
35.0
 30
0.0
 11
-39.0
 21
35.0
 31
0.0
  0
LINE
  5
2A9
330
1F
100
AcDbEntity
  8
Layer 01
100
AcDbLine
 10
-79.0
 20
20.0
 30
0.0
 11
-39.0
 21
20.0
 31
0.0
  0
LINE
  5
2AA
330
1F
100
AcDbEntity
  8
Layer 01
100
AcDbLine
 10
-79.0
 20
23.0
 30
0.0
 11
-39.0
 21
23.0
 31
0.0
  0
LINE
  5
2AB
330
1F
100
AcDbEntity
  8
Layer 01
100
AcDbLine
 10
-79.0
 20
26.0
 30
0.0
 11
-39.0
 21
26.0
 31
0.0
  0
LINE
  5
2AC
330
1F
100
AcDbEntity
  8
Layer 01
100
AcDbLine
 10
-79.0
 20
29.0
 30
0.0
 11
-39.0
 21
29.0
 31
0.0
  0
LINE
  5
2AD
330
1F
100
AcDbEntity
  8
Layer 01
100
AcDbLine
 10
-79.0
 20
38.0
 30
0.0
 11
-39.0
 21
38.0
 31
0.0
  0
LINE
  5
2AE
330
1F
100
AcDbEntity
  8
Layer 01
100
AcDbLine
 10
-79.0
 20
37.0
 30
0.0
 11
-39.0
 21
37.0
 31
0.0
  0
LINE
  5
2AF
330
1F
100
AcDbEntity
  8
Layer 01
100
AcDbLine
 10
-79.0
 20
39.0
 30
0.0
 11
-39.0
 21
39.0
 31
0.0
  0
LINE
  5
2B0
330
1F
100
AcDbEntity
  8
Layer 01
100
AcDbLine
 10
-79.0
 20
1.0
 30
0.0
 11
-39.0
 21
1.0
 31
0.0
  0
LINE
  5
2B1
330
1F
100
AcDbEntity
  8
Layer 01
100
AcDbLine
 10
-79.0
 20
3.0
 30
0.0
 11
-39.0
 21
3.0
 31
0.0
  0
LINE
  5
2B2
330
1F
100
AcDbEntity
  8
Layer 01
100
AcDbLine
 10
-79.0
 20
6.0
 30
0.0
 11
-39.0
 21
6.0
 31
0.0
  0
LINE
  5
2B3
330
1F
100
AcDbEntity
  8
Layer 01
100
AcDbLine
 10
-79.0
 20
9.0
 30
0.0
 11
-39.0
 21
9.0
 31
0.0
  0
LINE
  5
2B4
330
1F
100
AcDbEntity
  8
Layer 01
100
AcDbLine
 10
-79.0
 20
12.0
 30
0.0
 11
-39.0
 21
12.0
 31
0.0
  0
LINE
  5
2B5
330
1F
100
AcDbEntity
  8
Layer 01
100
AcDbLine
 10
-79.0
 20
15.0
 30
0.0
 11
-39.0
 21
15.0
 31
0.0
  0
LINE
  5
2B6
330
1F
100
AcDbEntity
  8
Layer 01
100
AcDbLine
 10
-79.0
 20
19.0
 30
0.0
 11
-39.0
 21
19.0
 31
0.0
  0
LINE
  5
2B7
330
1F
100
AcDbEntity
  8
Layer 01
100
AcDbLine
 10
-79.0
 20
22.0
 30
0.0
 11
-39.0
 21
22.0
 31
0.0
  0
LINE
  5
2B8
330
1F
100
AcDbEntity
  8
Layer 01
100
AcDbLine
 10
-79.0
 20
25.0
 30
0.0
 11
-39.0
 21
25.0
 31
0.0
  0
LINE
  5
2B9
330
1F
100
AcDbEntity
  8
Layer 01
100
AcDbLine
 10
-79.0
 20
28.0
 30
0.0
 11
-39.0
 21
28.0
 31
0.0
  0
LINE
  5
2BA
330
1F
100
AcDbEntity
  8
Layer 01
100
AcDbLine
 10
-79.0
 20
31.0
 30
0.0
 11
-39.0
 21
31.0
 31
0.0
  0
LINE
  5
2BB
330
1F
100
AcDbEntity
  8
Layer 01
100
AcDbLine
 10
-79.0
 20
32.0
 30
0.0
 11
-39.0
 21
32.0
 31
0.0
  0
LINE
  5
2BC
330
1F
100
AcDbEntity
  8
Layer 01
100
AcDbLine
 10
-79.0
 20
33.0
 30
0.0
 11
-39.0
 21
33.0
 31
0.0
  0
LINE
  5
2BD
330
1F
100
AcDbEntity
  8
Layer 01
100
AcDbLine
 10
-79.0
 20
36.0
 30
0.0
 11
-39.0
 21
36.0
 31
0.0
  0
LINE
  5
2BE
330
1F
100
AcDbEntity
  8
Layer 01
100
AcDbLine
 10
-79.0
 20
40.0
 30
0.0
 11
-39.0
 21
40.0
 31
0.0
  0
LINE
  5
2BF
330
1F
100
AcDbEntity
  8
Layer 01
100
AcDbLine
 10
-79.0
 20
41.0
 30
0.0
 11
-39.0
 21
41.0
 31
0.0
  0
LINE
  5
2C0
330
1F
100
AcDbEntity
  8
Layer 01
100
AcDbLine
 10
-79.0
 20
2.0
 30
0.0
 11
-39.0
 21
2.0
 31
0.0
  0
LINE
  5
2C1
330
1F
100
AcDbEntity
  8
Layer 01
100
AcDbLine
 10
-79.0
 20
5.0
 30
0.0
 11
-39.0
 21
5.0
 31
0.0
  0
LINE
  5
2C2
330
1F
100
AcDbEntity
  8
Layer 01
100
AcDbLine
 10
-79.0
 20
8.0
 30
0.0
 11
-39.0
 21
8.0
 31
0.0
  0
LINE
  5
2C3
330
1F
100
AcDbEntity
  8
Layer 01
100
AcDbLine
 10
-79.0
 20
11.0
 30
0.0
 11
-39.0
 21
11.0
 31
0.0
  0
LINE
  5
2C4
330
1F
100
AcDbEntity
  8
Layer 01
100
AcDbLine
 10
-79.0
 20
14.0
 30
0.0
 11
-39.0
 21
14.0
 31
0.0
  0
LINE
  5
2C5
330
1F
100
AcDbEntity
  8
Layer 01
100
AcDbLine
 10
-79.0
 20
17.0
 30
0.0
 11
-39.0
 21
17.0
 31
0.0
  0
LINE
  5
2C6
330
1F
100
AcDbEntity
  8
Layer 01
100
AcDbLine
 10
-79.0
 20
18.0
 30
0.0
 11
-39.0
 21
18.0
 31
0.0
  0
LINE
  5
2C7
330
1F
100
AcDbEntity
  8
Layer 01
100
AcDbLine
 10
-79.0
 20
21.0
 30
0.0
 11
-39.0
 21
21.0
 31
0.0
  0
LINE
  5
2C8
330
1F
100
AcDbEntity
  8
Layer 01
100
AcDbLine
 10
-79.0
 20
24.0
 30
0.0
 11
-39.0
 21
24.0
 31
0.0
  0
LINE
  5
2C9
330
1F
100
AcDbEntity
  8
Layer 01
100
AcDbLine
 10
-79.0
 20
27.0
 30
0.0
 11
-39.0
 21
27.0
 31
0.0
  0
LINE
  5
2CA
330
1F
100
AcDbEntity
  8
Layer 01
100
AcDbLine
 10
-79.0
 20
30.0
 30
0.0
 11
-39.0
 21
30.0
 31
0.0
  0
LINE
  5
2CB
330
1F
100
AcDbEntity
  8
Layer 01
100
AcDbLine
 10
-79.0
 20
34.0
 30
0.0
 11
-39.0
 21
34.0
 31
0.0
  0
LINE
  5
2CC
330
1F
100
AcDbEntity
  8
Layer 01
100
AcDbLine
 10
-76.0
 20
0.0
 30
0.0
 11
-76.0
 21
50.0
 31
0.0
  0
LINE
  5
2CD
330
1F
100
AcDbEntity
  8
Layer 01
100
AcDbLine
 10
-73.0
 20
0.0
 30
0.0
 11
-73.0
 21
50.0
 31
0.0
  0
LINE
  5
2CE
330
1F
100
AcDbEntity
  8
Layer 01
100
AcDbLine
 10
-70.0
 20
0.0
 30
0.0
 11
-70.0
 21
50.0
 31
0.0
  0
LINE
  5
2CF
330
1F
100
AcDbEntity
  8
Layer 01
100
AcDbLine
 10
-68.0
 20
0.0
 30
0.0
 11
-68.0
 21
50.0
 31
0.0
  0
LINE
  5
2D0
330
1F
100
AcDbEntity
  8
Layer 01
100
AcDbLine
 10
-61.0
 20
0.0
 30
0.0
 11
-61.0
 21
50.0
 31
0.0
  0
LINE
  5
2D1
330
1F
100
AcDbEntity
  8
Layer 01
100
AcDbLine
 10
-45.0
 20
0.0
 30
0.0
 11
-45.0
 21
50.0
 31
0.0
  0
LINE
  5
2D2
330
1F
100
AcDbEntity
  8
Layer 01
100
AcDbLine
 10
-44.0
 20
0.0
 30
0.0
 11
-44.0
 21
50.0
 31
0.0
  0
LINE
  5
2D3
330
1F
100
AcDbEntity
  8
Layer 01
100
AcDbLine
 10
-43.0
 20
0.0
 30
0.0
 11
-43.0
 21
50.0
 31
0.0
  0
LINE
  5
2D4
330
1F
100
AcDbEntity
  8
Layer 01
100
AcDbLine
 10
-75.0
 20
0.0
 30
0.0
 11
-75.0
 21
50.0
 31
0.0
  0
LINE
  5
2D5
330
1F
100
AcDbEntity
  8
Layer 01
100
AcDbLine
 10
-72.0
 20
0.0
 30
0.0
 11
-72.0
 21
50.0
 31
0.0
  0
LINE
  5
2D6
330
1F
100
AcDbEntity
  8
Layer 01
100
AcDbLine
 10
-69.0
 20
0.0
 30
0.0
 11
-69.0
 21
50.0
 31
0.0
  0
LINE
  5
2D7
330
1F
100
AcDbEntity
  8
Layer 01
100
AcDbLine
 10
-66.0
 20
0.0
 30
0.0
 11
-66.0
 21
50.0
 31
0.0
  0
LINE
  5
2D8
330
1F
100
AcDbEntity
  8
Layer 01
100
AcDbLine
 10
-65.0
 20
0.0
 30
0.0
 11
-65.0
 21
50.0
 31
0.0
  0
LINE
  5
2D9
330
1F
100
AcDbEntity
  8
Layer 01
100
AcDbLine
 10
-64.0
 20
0.0
 30
0.0
 11
-64.0
 21
50.0
 31
0.0
  0
LINE
  5
2DA
330
1F
100
AcDbEntity
  8
Layer 01
100
AcDbLine
 10
-63.0
 20
0.0
 30
0.0
 11
-63.0
 21
50.0
 31
0.0
  0
LINE
  5
2DB
330
1F
100
AcDbEntity
  8
Layer 01
100
AcDbLine
 10
-62.0
 20
0.0
 30
0.0
 11
-62.0
 21
50.0
 31
0.0
  0
LINE
  5
2DC
330
1F
100
AcDbEntity
  8
Layer 01
100
AcDbLine
 10
-60.0
 20
0.0
 30
0.0
 11
-60.0
 21
50.0
 31
0.0
  0
LINE
  5
2DD
330
1F
100
AcDbEntity
  8
Layer 01
100
AcDbLine
 10
-59.0
 20
0.0
 30
0.0
 11
-59.0
 21
50.0
 31
0.0
  0
LINE
  5
2DE
330
1F
100
AcDbEntity
  8
Layer 01
100
AcDbLine
 10
-58.0
 20
0.0
 30
0.0
 11
-58.0
 21
50.0
 31
0.0
  0
LINE
  5
2DF
330
1F
100
AcDbEntity
  8
Layer 01
100
AcDbLine
 10
-57.0
 20
0.0
 30
0.0
 11
-57.0
 21
50.0
 31
0.0
  0
LINE
  5
2E0
330
1F
100
AcDbEntity
  8
Layer 01
100
AcDbLine
 10
-56.0
 20
0.0
 30
0.0
 11
-56.0
 21
50.0
 31
0.0
  0
LINE
  5
2E1
330
1F
100
AcDbEntity
  8
Layer 01
100
AcDbLine
 10
-55.0
 20
0.0
 30
0.0
 11
-55.0
 21
50.0
 31
0.0
  0
LINE
  5
2E2
330
1F
100
AcDbEntity
  8
Layer 01
100
AcDbLine
 10
-54.0
 20
0.0
 30
0.0
 11
-54.0
 21
50.0
 31
0.0
  0
LINE
  5
2E3
330
1F
100
AcDbEntity
  8
Layer 01
100
AcDbLine
 10
-53.0
 20
0.0
 30
0.0
 11
-53.0
 21
50.0
 31
0.0
  0
LINE
  5
2E4
330
1F
100
AcDbEntity
  8
Layer 01
100
AcDbLine
 10
-52.0
 20
0.0
 30
0.0
 11
-52.0
 21
50.0
 31
0.0
  0
LINE
  5
2E5
330
1F
100
AcDbEntity
  8
Layer 01
100
AcDbLine
 10
-51.0
 20
0.0
 30
0.0
 11
-51.0
 21
50.0
 31
0.0
  0
LINE
  5
2E6
330
1F
100
AcDbEntity
  8
Layer 01
100
AcDbLine
 10
-50.0
 20
0.0
 30
0.0
 11
-50.0
 21
50.0
 31
0.0
  0
LINE
  5
2E7
330
1F
100
AcDbEntity
  8
Layer 01
100
AcDbLine
 10
-49.0
 20
0.0
 30
0.0
 11
-49.0
 21
50.0
 31
0.0
  0
LINE
  5
2E8
330
1F
100
AcDbEntity
  8
Layer 01
100
AcDbLine
 10
-48.0
 20
0.0
 30
0.0
 11
-48.0
 21
50.0
 31
0.0
  0
LINE
  5
2E9
330
1F
100
AcDbEntity
  8
Layer 01
100
AcDbLine
 10
-47.0
 20
0.0
 30
0.0
 11
-47.0
 21
50.0
 31
0.0
  0
LINE
  5
2EA
330
1F
100
AcDbEntity
  8
Layer 01
100
AcDbLine
 10
-46.0
 20
0.0
 30
0.0
 11
-46.0
 21
50.0
 31
0.0
  0
LINE
  5
2EB
330
1F
100
AcDbEntity
  8
Layer 01
100
AcDbLine
 10
-42.0
 20
0.0
 30
0.0
 11
-42.0
 21
50.0
 31
0.0
  0
LINE
  5
2EC
330
1F
100
AcDbEntity
  8
Layer 01
100
AcDbLine
 10
-41.0
 20
0.0
 30
0.0
 11
-41.0
 21
50.0
 31
0.0
  0
LINE
  5
2ED
330
1F
100
AcDbEntity
  8
Layer 01
100
AcDbLine
 10
-79.0
 20
0.0
 30
0.0
 11
-79.0
 21
50.0
 31
0.0
  0
LINE
  5
2EE
330
1F
100
AcDbEntity
  8
Layer 01
100
AcDbLine
 10
-78.0
 20
0.0
 30
0.0
 11
-78.0
 21
50.0
 31
0.0
  0
LINE
  5
2EF
330
1F
100
AcDbEntity
  8
Layer 01
100
AcDbLine
 10
-77.0
 20
0.0
 30
0.0
 11
-77.0
 21
50.0
 31
0.0
  0
LINE
  5
2F0
330
1F
100
AcDbEntity
  8
Layer 01
100
AcDbLine
 10
-74.0
 20
0.0
 30
0.0
 11
-74.0
 21
50.0
 31
0.0
  0
LINE
  5
2F1
330
1F
100
AcDbEntity
  8
Layer 01
100
AcDbLine
 10
-71.0
 20
0.0
 30
0.0
 11
-71.0
 21
50.0
 31
0.0
  0
LINE
  5
2F2
330
1F
100
AcDbEntity
  8
Layer 01
100
AcDbLine
 10
-67.0
 20
0.0
 30
0.0
 11
-67.0
 21
50.0
 31
0.0
  0
LINE
  5
2F3
330
1F
100
AcDbEntity
  8
Layer 01
100
AcDbLine
 10
-39.0
 20
0.0
 30
0.0
 11
-39.0
 21
50.0
 31
0.0
  0
LINE
  5
2F4
330
1F
100
AcDbEntity
  8
Layer 01
100
AcDbLine
 10
-40.0
 20
0.0
 30
0.0
 11
-40.0
 21
50.0
 31
0.0
  0
LINE
  5
2F5
330
1F
100
AcDbEntity
  8
Layer 01
100
AcDbLine
 10
-79.0
 20
42.0
 30
0.0
 11
-39.0
 21
42.0
 31
0.0
  0
LINE
  5
2F6
330
1F
100
AcDbEntity
  8
Layer 01
100
AcDbLine
 10
-79.0
 20
43.0
 30
0.0
 11
-39.0
 21
43.0
 31
0.0
  0
LINE
  5
2F7
330
1F
100
AcDbEntity
  8
Layer 01
100
AcDbLine
 10
-79.0
 20
44.0
 30
0.0
 11
-39.0
 21
44.0
 31
0.0
  0
LINE
  5
2F8
330
1F
100
AcDbEntity
  8
Layer 01
100
AcDbLine
 10
-79.0
 20
45.0
 30
0.0
 11
-39.0
 21
45.0
 31
0.0
  0
LINE
  5
2F9
330
1F
100
AcDbEntity
  8
Layer 01
100
AcDbLine
 10
-79.0
 20
46.0
 30
0.0
 11
-39.0
 21
46.0
 31
0.0
  0
LINE
  5
2FA
330
1F
100
AcDbEntity
  8
Layer 01
100
AcDbLine
 10
-79.0
 20
0.0
 30
0.0
 11
-39.0
 21
0.0
 31
0.0
  0
LINE
  5
2FB
330
1F
100
AcDbEntity
  8
Layer 01
100
AcDbLine
 10
-79.0
 20
48.0
 30
0.0
 11
-39.0
 21
48.0
 31
0.0
  0
LINE
  5
2FC
330
1F
100
AcDbEntity
  8
Layer 01
100
AcDbLine
 10
-79.0
 20
49.0
 30
0.0
 11
-39.0
 21
49.0
 31
0.0
  0
LINE
  5
2FD
330
1F
100
AcDbEntity
  8
Layer 01
100
AcDbLine
 10
-79.0
 20
50.0
 30
0.0
 11
-39.0
 21
50.0
 31
0.0
  0
LINE
  5
2FE
330
1F
100
AcDbEntity
  8
Layer 01
100
AcDbLine
 10
-79.0
 20
47.0
 30
0.0
 11
-39.0
 21
47.0
 31
0.0
  0
POLYLINE
  5
2FF
330
1F
100
AcDbEntity
  8
Layer 02
100
AcDb2dPolyline
 66
     1
 10
0.0
 20
0.0
 30
0.0
  0
VERTEX
  5
300
330
2FF
100
AcDbEntity
  8
Layer 02
100
AcDbVertex
100
AcDb2dVertex
 10
-50.5
 20
-51.5
 30
0.0
  0
VERTEX
  5
301
330
2FF
100
AcDbEntity
  8
Layer 02
100
AcDbVertex
100
AcDb2dVertex
 10
-20.8
 20
-51.5
 30
0.0
  0
VERTEX
  5
302
330
2FF
100
AcDbEntity
  8
Layer 02
100
AcDbVertex
100
AcDb2dVertex
 10
-20.8
 20
-9.5
 30
0.0
  0
VERTEX
  5
303
330
2FF
100
AcDbEntity
  8
Layer 02
100
AcDbVertex
100
AcDb2dVertex
 10
-50.5
 20
-9.5
 30
0.0
  0
VERTEX
  5
304
330
2FF
100
AcDbEntity
  8
Layer 02
100
AcDbVertex
100
AcDb2dVertex
 10
-50.5
 20
-51.5
 30
0.0
  0
SEQEND
  5
305
330
2FF
100
AcDbEntity
  8
Layer 02
  0
POLYLINE
  5
306
330
1F
100
AcDbEntity
  8
Layer 02
100
AcDb2dPolyline
 66
     1
 10
0.0
 20
0.0
 30
0.0
  0
VERTEX
  5
307
330
306
100
AcDbEntity
  8
Layer 02
100
AcDbVertex
100
AcDb2dVertex
 10
-48.5
 20
-51.5
 30
0.0
  0
VERTEX
  5
308
330
306
100
AcDbEntity
  8
Layer 02
100
AcDbVertex
100
AcDb2dVertex
 10
-18.8
 20
-51.5
 30
0.0
  0
VERTEX
  5
309
330
306
100
AcDbEntity
  8
Layer 02
100
AcDbVertex
100
AcDb2dVertex
 10
-18.8
 20
-9.5
 30
0.0
  0
VERTEX
  5
30A
330
306
100
AcDbEntity
  8
Layer 02
100
AcDbVertex
100
AcDb2dVertex
 10
-48.5
 20
-9.5
 30
0.0
  0
VERTEX
  5
30B
330
306
100
AcDbEntity
  8
Layer 02
100
AcDbVertex
100
AcDb2dVertex
 10
-48.5
 20
-51.5
 30
0.0
  0
SEQEND
  5
30C
330
306
100
AcDbEntity
  8
Layer 02
  0
POLYLINE
  5
30D
330
1F
100
AcDbEntity
  8
Layer 02
100
AcDb2dPolyline
 66
     1
 10
0.0
 20
0.0
 30
0.0
  0
VERTEX
  5
30E
330
30D
100
AcDbEntity
  8
Layer 02
100
AcDbVertex
100
AcDb2dVertex
 10
-46.5
 20
-51.5
 30
0.0
  0
VERTEX
  5
30F
330
30D
100
AcDbEntity
  8
Layer 02
100
AcDbVertex
100
AcDb2dVertex
 10
-16.8
 20
-51.5
 30
0.0
  0
VERTEX
  5
310
330
30D
100
AcDbEntity
  8
Layer 02
100
AcDbVertex
100
AcDb2dVertex
 10
-16.8
 20
-9.5
 30
0.0
  0
VERTEX
  5
311
330
30D
100
AcDbEntity
  8
Layer 02
100
AcDbVertex
100
AcDb2dVertex
 10
-46.5
 20
-9.5
 30
0.0
  0
VERTEX
  5
312
330
30D
100
AcDbEntity
  8
Layer 02
100
AcDbVertex
100
AcDb2dVertex
 10
-46.5
 20
-51.5
 30
0.0
  0
SEQEND
  5
313
330
30D
100
AcDbEntity
  8
Layer 02
  0
POLYLINE
  5
314
330
1F
100
AcDbEntity
  8
Layer 02
100
AcDb2dPolyline
 66
     1
 10
0.0
 20
0.0
 30
0.0
  0
VERTEX
  5
315
330
314
100
AcDbEntity
  8
Layer 02
100
AcDbVertex
100
AcDb2dVertex
 10
-51.5
 20
-61.5
 30
0.0
  0
VERTEX
  5
316
330
314
100
AcDbEntity
  8
Layer 02
100
AcDbVertex
100
AcDb2dVertex
 10
-9.5
 20
-61.5
 30
0.0
  0
VERTEX
  5
317
330
314
100
AcDbEntity
  8
Layer 02
100
AcDbVertex
100
AcDb2dVertex
 10
-9.5
 20
-31.8
 30
0.0
  0
VERTEX
  5
318
330
314
100
AcDbEntity
  8
Layer 02
100
AcDbVertex
100
AcDb2dVertex
 10
-51.5
 20
-31.8
 30
0.0
  0
VERTEX
  5
319
330
314
100
AcDbEntity
  8
Layer 02
100
AcDbVertex
100
AcDb2dVertex
 10
-51.5
 20
-61.5
 30
0.0
  0
SEQEND
  5
31A
330
314
100
AcDbEntity
  8
Layer 02
  0
POLYLINE
  5
31B
330
1F
100
AcDbEntity
  8
Layer 02
100
AcDb2dPolyline
 66
     1
 10
0.0
 20
0.0
 30
0.0
  0
VERTEX
  5
31C
330
31B
100
AcDbEntity
  8
Layer 02
100
AcDbVertex
100
AcDb2dVertex
 10
-50.5
 20
-61.5
 30
0.0
  0
VERTEX
  5
31D
330
31B
100
AcDbEntity
  8
Layer 02
100
AcDbVertex
100
AcDb2dVertex
 10
-8.5
 20
-61.5
 30
0.0
  0
VERTEX
  5
31E
330
31B
100
AcDbEntity
  8
Layer 02
100
AcDbVertex
100
AcDb2dVertex
 10
-8.5
 20
-31.8
 30
0.0
  0
VERTEX
  5
31F
330
31B
100
AcDbEntity
  8
Layer 02
100
AcDbVertex
100
AcDb2dVertex
 10
-50.5
 20
-31.8
 30
0.0
  0
VERTEX
  5
320
330
31B
100
AcDbEntity
  8
Layer 02
100
AcDbVertex
100
AcDb2dVertex
 10
-50.5
 20
-61.5
 30
0.0
  0
SEQEND
  5
321
330
31B
100
AcDbEntity
  8
Layer 02
  0
POLYLINE
  5
322
330
1F
100
AcDbEntity
  8
Layer 02
100
AcDb2dPolyline
 66
     1
 10
0.0
 20
0.0
 30
0.0
  0
VERTEX
  5
323
330
322
100
AcDbEntity
  8
Layer 02
100
AcDbVertex
100
AcDb2dVertex
 10
-49.5
 20
-61.5
 30
0.0
  0
VERTEX
  5
324
330
322
100
AcDbEntity
  8
Layer 02
100
AcDbVertex
100
AcDb2dVertex
 10
-7.5
 20
-61.5
 30
0.0
  0
VERTEX
  5
325
330
322
100
AcDbEntity
  8
Layer 02
100
AcDbVertex
100
AcDb2dVertex
 10
-7.5
 20
-31.8
 30
0.0
  0
VERTEX
  5
326
330
322
100
AcDbEntity
  8
Layer 02
100
AcDbVertex
100
AcDb2dVertex
 10
-49.5
 20
-31.8
 30
0.0
  0
VERTEX
  5
327
330
322
100
AcDbEntity
  8
Layer 02
100
AcDbVertex
100
AcDb2dVertex
 10
-49.5
 20
-61.5
 30
0.0
  0
SEQEND
  5
328
330
322
100
AcDbEntity
  8
Layer 02
  0
POLYLINE
  5
329
330
1F
100
AcDbEntity
  8
Layer 02
100
AcDb2dPolyline
 66
     1
 10
0.0
 20
0.0
 30
0.0
  0
VERTEX
  5
32A
330
329
100
AcDbEntity
  8
Layer 02
100
AcDbVertex
100
AcDb2dVertex
 10
-48.5
 20
-61.5
 30
0.0
  0
VERTEX
  5
32B
330
329
100
AcDbEntity
  8
Layer 02
100
AcDbVertex
100
AcDb2dVertex
 10
-6.5
 20
-61.5
 30
0.0
  0
VERTEX
  5
32C
330
329
100
AcDbEntity
  8
Layer 02
100
AcDbVertex
100
AcDb2dVertex
 10
-6.5
 20
-31.8
 30
0.0
  0
VERTEX
  5
32D
330
329
100
AcDbEntity
  8
Layer 02
100
AcDbVertex
100
AcDb2dVertex
 10
-48.5
 20
-31.8
 30
0.0
  0
VERTEX
  5
32E
330
329
100
AcDbEntity
  8
Layer 02
100
AcDbVertex
100
AcDb2dVertex
 10
-48.5
 20
-61.5
 30
0.0
  0
SEQEND
  5
32F
330
329
100
AcDbEntity
  8
Layer 02
  0
POLYLINE
  5
330
330
1F
100
AcDbEntity
  8
Layer 02
100
AcDb2dPolyline
 66
     1
 10
0.0
 20
0.0
 30
0.0
  0
VERTEX
  5
331
330
330
100
AcDbEntity
  8
Layer 02
100
AcDbVertex
100
AcDb2dVertex
 10
-47.5
 20
-61.5
 30
0.0
  0
VERTEX
  5
332
330
330
100
AcDbEntity
  8
Layer 02
100
AcDbVertex
100
AcDb2dVertex
 10
-5.5
 20
-61.5
 30
0.0
  0
VERTEX
  5
333
330
330
100
AcDbEntity
  8
Layer 02
100
AcDbVertex
100
AcDb2dVertex
 10
-5.5
 20
-31.8
 30
0.0
  0
VERTEX
  5
334
330
330
100
AcDbEntity
  8
Layer 02
100
AcDbVertex
100
AcDb2dVertex
 10
-47.5
 20
-31.8
 30
0.0
  0
VERTEX
  5
335
330
330
100
AcDbEntity
  8
Layer 02
100
AcDbVertex
100
AcDb2dVertex
 10
-47.5
 20
-61.5
 30
0.0
  0
SEQEND
  5
336
330
330
100
AcDbEntity
  8
Layer 02
  0
POLYLINE
  5
337
330
1F
100
AcDbEntity
  8
Layer 02
100
AcDb2dPolyline
 66
     1
 10
0.0
 20
0.0
 30
0.0
  0
VERTEX
  5
338
330
337
100
AcDbEntity
  8
Layer 02
100
AcDbVertex
100
AcDb2dVertex
 10
-46.5
 20
-61.5
 30
0.0
  0
VERTEX
  5
339
330
337
100
AcDbEntity
  8
Layer 02
100
AcDbVertex
100
AcDb2dVertex
 10
-4.5
 20
-61.5
 30
0.0
  0
VERTEX
  5
33A
330
337
100
AcDbEntity
  8
Layer 02
100
AcDbVertex
100
AcDb2dVertex
 10
-4.5
 20
-31.8
 30
0.0
  0
VERTEX
  5
33B
330
337
100
AcDbEntity
  8
Layer 02
100
AcDbVertex
100
AcDb2dVertex
 10
-46.5
 20
-31.8
 30
0.0
  0
VERTEX
  5
33C
330
337
100
AcDbEntity
  8
Layer 02
100
AcDbVertex
100
AcDb2dVertex
 10
-46.5
 20
-61.5
 30
0.0
  0
SEQEND
  5
33D
330
337
100
AcDbEntity
  8
Layer 02
  0
POLYLINE
  5
33E
330
1F
100
AcDbEntity
  8
Layer 02
100
AcDb2dPolyline
 66
     1
 10
0.0
 20
0.0
 30
0.0
  0
VERTEX
  5
33F
330
33E
100
AcDbEntity
  8
Layer 02
100
AcDbVertex
100
AcDb2dVertex
 10
-45.5
 20
-61.5
 30
0.0
  0
VERTEX
  5
340
330
33E
100
AcDbEntity
  8
Layer 02
100
AcDbVertex
100
AcDb2dVertex
 10
-3.5
 20
-61.5
 30
0.0
  0
VERTEX
  5
341
330
33E
100
AcDbEntity
  8
Layer 02
100
AcDbVertex
100
AcDb2dVertex
 10
-3.5
 20
-31.8
 30
0.0
  0
VERTEX
  5
342
330
33E
100
AcDbEntity
  8
Layer 02
100
AcDbVertex
100
AcDb2dVertex
 10
-45.5
 20
-31.8
 30
0.0
  0
VERTEX
  5
343
330
33E
100
AcDbEntity
  8
Layer 02
100
AcDbVertex
100
AcDb2dVertex
 10
-45.5
 20
-61.5
 30
0.0
  0
SEQEND
  5
344
330
33E
100
AcDbEntity
  8
Layer 02
  0
POLYLINE
  5
345
330
1F
100
AcDbEntity
  8
Layer 02
100
AcDb2dPolyline
 66
     1
 10
0.0
 20
0.0
 30
0.0
  0
VERTEX
  5
346
330
345
100
AcDbEntity
  8
Layer 02
100
AcDbVertex
100
AcDb2dVertex
 10
-44.5
 20
-61.5
 30
0.0
  0
VERTEX
  5
347
330
345
100
AcDbEntity
  8
Layer 02
100
AcDbVertex
100
AcDb2dVertex
 10
-2.5
 20
-61.5
 30
0.0
  0
VERTEX
  5
348
330
345
100
AcDbEntity
  8
Layer 02
100
AcDbVertex
100
AcDb2dVertex
 10
-2.5
 20
-31.8
 30
0.0
  0
VERTEX
  5
349
330
345
100
AcDbEntity
  8
Layer 02
100
AcDbVertex
100
AcDb2dVertex
 10
-44.5
 20
-31.8
 30
0.0
  0
VERTEX
  5
34A
330
345
100
AcDbEntity
  8
Layer 02
100
AcDbVertex
100
AcDb2dVertex
 10
-44.5
 20
-61.5
 30
0.0
  0
SEQEND
  5
34B
330
345
100
AcDbEntity
  8
Layer 02
  0
POLYLINE
  5
34C
330
1F
100
AcDbEntity
  8
Layer 02
100
AcDb2dPolyline
 66
     1
 10
0.0
 20
0.0
 30
0.0
  0
VERTEX
  5
34D
330
34C
100
AcDbEntity
  8
Layer 02
100
AcDbVertex
100
AcDb2dVertex
 10
-49.5
 20
-51.5
 30
0.0
  0
VERTEX
  5
34E
330
34C
100
AcDbEntity
  8
Layer 02
100
AcDbVertex
100
AcDb2dVertex
 10
-19.8
 20
-51.5
 30
0.0
  0
VERTEX
  5
34F
330
34C
100
AcDbEntity
  8
Layer 02
100
AcDbVertex
100
AcDb2dVertex
 10
-19.8
 20
-9.5
 30
0.0
  0
VERTEX
  5
350
330
34C
100
AcDbEntity
  8
Layer 02
100
AcDbVertex
100
AcDb2dVertex
 10
-49.5
 20
-9.5
 30
0.0
  0
VERTEX
  5
351
330
34C
100
AcDbEntity
  8
Layer 02
100
AcDbVertex
100
AcDb2dVertex
 10
-49.5
 20
-51.5
 30
0.0
  0
SEQEND
  5
352
330
34C
100
AcDbEntity
  8
Layer 02
  0
POLYLINE
  5
353
330
1F
100
AcDbEntity
  8
Layer 02
100
AcDb2dPolyline
 66
     1
 10
0.0
 20
0.0
 30
0.0
  0
VERTEX
  5
354
330
353
100
AcDbEntity
  8
Layer 02
100
AcDbVertex
100
AcDb2dVertex
 10
-47.5
 20
-51.5
 30
0.0
  0
VERTEX
  5
355
330
353
100
AcDbEntity
  8
Layer 02
100
AcDbVertex
100
AcDb2dVertex
 10
-17.8
 20
-51.5
 30
0.0
  0
VERTEX
  5
356
330
353
100
AcDbEntity
  8
Layer 02
100
AcDbVertex
100
AcDb2dVertex
 10
-17.8
 20
-9.5
 30
0.0
  0
VERTEX
  5
357
330
353
100
AcDbEntity
  8
Layer 02
100
AcDbVertex
100
AcDb2dVertex
 10
-47.5
 20
-9.5
 30
0.0
  0
VERTEX
  5
358
330
353
100
AcDbEntity
  8
Layer 02
100
AcDbVertex
100
AcDb2dVertex
 10
-47.5
 20
-51.5
 30
0.0
  0
SEQEND
  5
359
330
353
100
AcDbEntity
  8
Layer 02
  0
POLYLINE
  5
35A
330
1F
100
AcDbEntity
  8
Layer 02
100
AcDb2dPolyline
 66
     1
 10
0.0
 20
0.0
 30
0.0
  0
VERTEX
  5
35B
330
35A
100
AcDbEntity
  8
Layer 02
100
AcDbVertex
100
AcDb2dVertex
 10
-52.5
 20
-61.5
 30
0.0
  0
VERTEX
  5
35C
330
35A
100
AcDbEntity
  8
Layer 02
100
AcDbVertex
100
AcDb2dVertex
 10
-10.5
 20
-61.5
 30
0.0
  0
VERTEX
  5
35D
330
35A
100
AcDbEntity
  8
Layer 02
100
AcDbVertex
100
AcDb2dVertex
 10
-10.5
 20
-31.8
 30
0.0
  0
VERTEX
  5
35E
330
35A
100
AcDbEntity
  8
Layer 02
100
AcDbVertex
100
AcDb2dVertex
 10
-52.5
 20
-31.8
 30
0.0
  0
VERTEX
  5
35F
330
35A
100
AcDbEntity
  8
Layer 02
100
AcDbVertex
100
AcDb2dVertex
 10
-52.5
 20
-61.5
 30
0.0
  0
SEQEND
  5
360
330
35A
100
AcDbEntity
  8
Layer 02
  0
POLYLINE
  5
361
330
1F
100
AcDbEntity
  8
Layer 02
100
AcDb2dPolyline
 66
     1
 10
0.0
 20
0.0
 30
0.0
  0
VERTEX
  5
362
330
361
100
AcDbEntity
  8
Layer 02
100
AcDbVertex
100
AcDb2dVertex
 10
-53.5
 20
-61.5
 30
0.0
  0
VERTEX
  5
363
330
361
100
AcDbEntity
  8
Layer 02
100
AcDbVertex
100
AcDb2dVertex
 10
-11.5
 20
-61.5
 30
0.0
  0
VERTEX
  5
364
330
361
100
AcDbEntity
  8
Layer 02
100
AcDbVertex
100
AcDb2dVertex
 10
-11.5
 20
-31.8
 30
0.0
  0
VERTEX
  5
365
330
361
100
AcDbEntity
  8
Layer 02
100
AcDbVertex
100
AcDb2dVertex
 10
-53.5
 20
-31.8
 30
0.0
  0
VERTEX
  5
366
330
361
100
AcDbEntity
  8
Layer 02
100
AcDbVertex
100
AcDb2dVertex
 10
-53.5
 20
-61.5
 30
0.0
  0
SEQEND
  5
367
330
361
100
AcDbEntity
  8
Layer 02
  0
POINT
  5
368
330
1F
100
AcDbEntity
  8
Default
100
AcDbPoint
 10
225.0
 20
0.0
 30
0.0
  0
POINT
  5
369
330
1F
100
AcDbEntity
  8
Default
100
AcDbPoint
 10
180.0
 20
0.0
 30
0.0
  0
POINT
  5
36A
330
1F
100
AcDbEntity
  8
Default
100
AcDbPoint
 10
135.0
 20
0.0
 30
0.0
  0
POINT
  5
36B
330
1F
100
AcDbEntity
  8
Default
100
AcDbPoint
 10
90.0
 20
0.0
 30
0.0
  0
POINT
  5
36C
330
1F
100
AcDbEntity
  8
Default
100
AcDbPoint
 10
45.0
 20
0.0
 30
0.0
  0
POINT
  5
36D
330
1F
100
AcDbEntity
  8
Default
100
AcDbPoint
 10
0.0
 20
0.0
 30
0.0
  0
POINT
  5
36E
330
1F
100
AcDbEntity
  8
Default
100
AcDbPoint
 10
225.0
 20
-20.0
 30
0.0
  0
POINT
  5
36F
330
1F
100
AcDbEntity
  8
Default
100
AcDbPoint
 10
0.0
 20
-20.0
 30
0.0
  0
POLYLINE
  5
370
330
1F
100
AcDbEntity
  8
Default
100
AcDb2dPolyline
 66
     1
 10
0.0
 20
0.0
 30
0.0
  0
VERTEX
  5
371
330
370
100
AcDbEntity
  8
Default
100
AcDbVertex
100
AcDb2dVertex
 10
195.0
 20
0.0
 30
0.0
  0
VERTEX
  5
372
330
370
100
AcDbEntity
  8
Default
100
AcDbVertex
100
AcDb2dVertex
 10
200.0
 20
-30.0
 30
0.0
  0
VERTEX
  5
373
330
370
100
AcDbEntity
  8
Default
100
AcDbVertex
100
AcDb2dVertex
 10
205.0
 20
-30.0
 30
0.0
  0
VERTEX
  5
374
330
370
100
AcDbEntity
  8
Default
100
AcDbVertex
100
AcDb2dVertex
 10
210.0
 20
0.0
 30
0.0
  0
SEQEND
  5
375
330
370
100
AcDbEntity
  8
Default
  0
POLYLINE
  5
376
330
1F
100
AcDbEntity
  8
Default
100
AcDb2dPolyline
 66
     1
 10
0.0
 20
0.0
 30
0.0
  0
VERTEX
  5
377
330
376
100
AcDbEntity
  8
Default
100
AcDbVertex
100
AcDb2dVertex
 10
165.0
 20
0.0
 30
0.0
  0
VERTEX
  5
378
330
376
100
AcDbEntity
  8
Default
100
AcDbVertex
100
AcDb2dVertex
 10
170.0
 20
-30.0
 30
0.0
  0
VERTEX
  5
379
330
376
100
AcDbEntity
  8
Default
100
AcDbVertex
100
AcDb2dVertex
 10
175.0
 20
-30.0
 30
0.0
  0
VERTEX
  5
37A
330
376
100
AcDbEntity
  8
Default
100
AcDbVertex
100
AcDb2dVertex
 10
180.0
 20
0.0
 30
0.0
  0
SEQEND
  5
37B
330
376
100
AcDbEntity
  8
Default
  0
POLYLINE
  5
37C
330
1F
100
AcDbEntity
  8
Default
100
AcDb2dPolyline
 66
     1
 10
0.0
 20
0.0
 30
0.0
  0
VERTEX
  5
37D
330
37C
100
AcDbEntity
  8
Default
100
AcDbVertex
100
AcDb2dVertex
 10
135.0
 20
0.0
 30
0.0
  0
VERTEX
  5
37E
330
37C
100
AcDbEntity
  8
Default
100
AcDbVertex
100
AcDb2dVertex
 10
140.0
 20
-30.0
 30
0.0
  0
VERTEX
  5
37F
330
37C
100
AcDbEntity
  8
Default
100
AcDbVertex
100
AcDb2dVertex
 10
145.0
 20
-30.0
 30
0.0
  0
VERTEX
  5
380
330
37C
100
AcDbEntity
  8
Default
100
AcDbVertex
100
AcDb2dVertex
 10
150.0
 20
0.0
 30
0.0
  0
SEQEND
  5
381
330
37C
100
AcDbEntity
  8
Default
  0
POLYLINE
  5
382
330
1F
100
AcDbEntity
  8
Default
100
AcDb2dPolyline
 66
     1
 10
0.0
 20
0.0
 30
0.0
  0
VERTEX
  5
383
330
382
100
AcDbEntity
  8
Default
100
AcDbVertex
100
AcDb2dVertex
 10
105.0
 20
0.0
 30
0.0
  0
VERTEX
  5
384
330
382
100
AcDbEntity
  8
Default
100
AcDbVertex
100
AcDb2dVertex
 10
110.0
 20
-30.0
 30
0.0
  0
VERTEX
  5
385
330
382
100
AcDbEntity
  8
Default
100
AcDbVertex
100
AcDb2dVertex
 10
115.0
 20
-30.0
 30
0.0
  0
VERTEX
  5
386
330
382
100
AcDbEntity
  8
Default
100
AcDbVertex
100
AcDb2dVertex
 10
120.0
 20
0.0
 30
0.0
  0
SEQEND
  5
387
330
382
100
AcDbEntity
  8
Default
  0
POLYLINE
  5
388
330
1F
100
AcDbEntity
  8
Default
100
AcDb2dPolyline
 66
     1
 10
0.0
 20
0.0
 30
0.0
  0
VERTEX
  5
389
330
388
100
AcDbEntity
  8
Default
100
AcDbVertex
100
AcDb2dVertex
 10
75.0
 20
0.0
 30
0.0
  0
VERTEX
  5
38A
330
388
100
AcDbEntity
  8
Default
100
AcDbVertex
100
AcDb2dVertex
 10
80.0
 20
-30.0
 30
0.0
  0
VERTEX
  5
38B
330
388
100
AcDbEntity
  8
Default
100
AcDbVertex
100
AcDb2dVertex
 10
85.0
 20
-30.0
 30
0.0
  0
VERTEX
  5
38C
330
388
100
AcDbEntity
  8
Default
100
AcDbVertex
100
AcDb2dVertex
 10
90.0
 20
0.0
 30
0.0
  0
SEQEND
  5
38D
330
388
100
AcDbEntity
  8
Default
  0
POLYLINE
  5
38E
330
1F
100
AcDbEntity
  8
Default
100
AcDb2dPolyline
 66
     1
 10
0.0
 20
0.0
 30
0.0
  0
VERTEX
  5
38F
330
38E
100
AcDbEntity
  8
Default
100
AcDbVertex
100
AcDb2dVertex
 10
45.0
 20
0.0
 30
0.0
  0
VERTEX
  5
390
330
38E
100
AcDbEntity
  8
Default
100
AcDbVertex
100
AcDb2dVertex
 10
50.0
 20
-30.0
 30
0.0
  0
VERTEX
  5
391
330
38E
100
AcDbEntity
  8
Default
100
AcDbVertex
100
AcDb2dVertex
 10
55.0
 20
-30.0
 30
0.0
  0
VERTEX
  5
392
330
38E
100
AcDbEntity
  8
Default
100
AcDbVertex
100
AcDb2dVertex
 10
60.0
 20
0.0
 30
0.0
  0
SEQEND
  5
393
330
38E
100
AcDbEntity
  8
Default
  0
POLYLINE
  5
394
330
1F
100
AcDbEntity
  8
Default
100
AcDb2dPolyline
 66
     1
 10
0.0
 20
0.0
 30
0.0
  0
VERTEX
  5
395
330
394
100
AcDbEntity
  8
Default
100
AcDbVertex
100
AcDb2dVertex
 10
15.0
 20
0.0
 30
0.0
  0
VERTEX
  5
396
330
394
100
AcDbEntity
  8
Default
100
AcDbVertex
100
AcDb2dVertex
 10
20.0
 20
-30.0
 30
0.0
  0
VERTEX
  5
397
330
394
100
AcDbEntity
  8
Default
100
AcDbVertex
100
AcDb2dVertex
 10
25.0
 20
-30.0
 30
0.0
  0
VERTEX
  5
398
330
394
100
AcDbEntity
  8
Default
100
AcDbVertex
100
AcDb2dVertex
 10
30.0
 20
0.0
 30
0.0
  0
SEQEND
  5
399
330
394
100
AcDbEntity
  8
Default
  0
POLYLINE
  5
39A
330
1F
100
AcDbEntity
  8
Default
100
AcDb2dPolyline
 66
     1
 10
0.0
 20
0.0
 30
0.0
  0
VERTEX
  5
39B
330
39A
100
AcDbEntity
  8
Default
100
AcDbVertex
100
AcDb2dVertex
 10
210.0
 20
0.0
 30
0.0
  0
VERTEX
  5
39C
330
39A
100
AcDbEntity
  8
Default
100
AcDbVertex
100
AcDb2dVertex
 10
215.0
 20
-20.0
 30
0.0
  0
VERTEX
  5
39D
330
39A
100
AcDbEntity
  8
Default
100
AcDbVertex
100
AcDb2dVertex
 10
220.0
 20
-20.0
 30
0.0
  0
VERTEX
  5
39E
330
39A
100
AcDbEntity
  8
Default
100
AcDbVertex
100
AcDb2dVertex
 10
225.0
 20
0.0
 30
0.0
  0
SEQEND
  5
39F
330
39A
100
AcDbEntity
  8
Default
  0
POLYLINE
  5
3A0
330
1F
100
AcDbEntity
  8
Default
100
AcDb2dPolyline
 66
     1
 10
0.0
 20
0.0
 30
0.0
  0
VERTEX
  5
3A1
330
3A0
100
AcDbEntity
  8
Default
100
AcDbVertex
100
AcDb2dVertex
 10
180.0
 20
0.0
 30
0.0
  0
VERTEX
  5
3A2
330
3A0
100
AcDbEntity
  8
Default
100
AcDbVertex
100
AcDb2dVertex
 10
185.0
 20
-20.0
 30
0.0
  0
VERTEX
  5
3A3
330
3A0
100
AcDbEntity
  8
Default
100
AcDbVertex
100
AcDb2dVertex
 10
190.0
 20
-20.0
 30
0.0
  0
VERTEX
  5
3A4
330
3A0
100
AcDbEntity
  8
Default
100
AcDbVertex
100
AcDb2dVertex
 10
195.0
 20
0.0
 30
0.0
  0
SEQEND
  5
3A5
330
3A0
100
AcDbEntity
  8
Default
  0
POLYLINE
  5
3A6
330
1F
100
AcDbEntity
  8
Default
100
AcDb2dPolyline
 66
     1
 10
0.0
 20
0.0
 30
0.0
  0
VERTEX
  5
3A7
330
3A6
100
AcDbEntity
  8
Default
100
AcDbVertex
100
AcDb2dVertex
 10
150.0
 20
0.0
 30
0.0
  0
VERTEX
  5
3A8
330
3A6
100
AcDbEntity
  8
Default
100
AcDbVertex
100
AcDb2dVertex
 10
155.0
 20
-20.0
 30
0.0
  0
VERTEX
  5
3A9
330
3A6
100
AcDbEntity
  8
Default
100
AcDbVertex
100
AcDb2dVertex
 10
160.0
 20
-20.0
 30
0.0
  0
VERTEX
  5
3AA
330
3A6
100
AcDbEntity
  8
Default
100
AcDbVertex
100
AcDb2dVertex
 10
165.0
 20
0.0
 30
0.0
  0
SEQEND
  5
3AB
330
3A6
100
AcDbEntity
  8
Default
  0
POLYLINE
  5
3AC
330
1F
100
AcDbEntity
  8
Default
100
AcDb2dPolyline
 66
     1
 10
0.0
 20
0.0
 30
0.0
  0
VERTEX
  5
3AD
330
3AC
100
AcDbEntity
  8
Default
100
AcDbVertex
100
AcDb2dVertex
 10
120.0
 20
0.0
 30
0.0
  0
VERTEX
  5
3AE
330
3AC
100
AcDbEntity
  8
Default
100
AcDbVertex
100
AcDb2dVertex
 10
125.0
 20
-20.0
 30
0.0
  0
VERTEX
  5
3AF
330
3AC
100
AcDbEntity
  8
Default
100
AcDbVertex
100
AcDb2dVertex
 10
130.0
 20
-20.0
 30
0.0
  0
VERTEX
  5
3B0
330
3AC
100
AcDbEntity
  8
Default
100
AcDbVertex
100
AcDb2dVertex
 10
135.0
 20
0.0
 30
0.0
  0
SEQEND
  5
3B1
330
3AC
100
AcDbEntity
  8
Default
  0
POLYLINE
  5
3B2
330
1F
100
AcDbEntity
  8
Default
100
AcDb2dPolyline
 66
     1
 10
0.0
 20
0.0
 30
0.0
  0
VERTEX
  5
3B3
330
3B2
100
AcDbEntity
  8
Default
100
AcDbVertex
100
AcDb2dVertex
 10
90.0
 20
0.0
 30
0.0
  0
VERTEX
  5
3B4
330
3B2
100
AcDbEntity
  8
Default
100
AcDbVertex
100
AcDb2dVertex
 10
95.0
 20
-20.0
 30
0.0
  0
VERTEX
  5
3B5
330
3B2
100
AcDbEntity
  8
Default
100
AcDbVertex
100
AcDb2dVertex
 10
100.0
 20
-20.0
 30
0.0
  0
VERTEX
  5
3B6
330
3B2
100
AcDbEntity
  8
Default
100
AcDbVertex
100
AcDb2dVertex
 10
105.0
 20
0.0
 30
0.0
  0
SEQEND
  5
3B7
330
3B2
100
AcDbEntity
  8
Default
  0
POLYLINE
  5
3B8
330
1F
100
AcDbEntity
  8
Default
100
AcDb2dPolyline
 66
     1
 10
0.0
 20
0.0
 30
0.0
  0
VERTEX
  5
3B9
330
3B8
100
AcDbEntity
  8
Default
100
AcDbVertex
100
AcDb2dVertex
 10
60.0
 20
0.0
 30
0.0
  0
VERTEX
  5
3BA
330
3B8
100
AcDbEntity
  8
Default
100
AcDbVertex
100
AcDb2dVertex
 10
65.0
 20
-20.0
 30
0.0
  0
VERTEX
  5
3BB
330
3B8
100
AcDbEntity
  8
Default
100
AcDbVertex
100
AcDb2dVertex
 10
70.0
 20
-20.0
 30
0.0
  0
VERTEX
  5
3BC
330
3B8
100
AcDbEntity
  8
Default
100
AcDbVertex
100
AcDb2dVertex
 10
75.0
 20
0.0
 30
0.0
  0
SEQEND
  5
3BD
330
3B8
100
AcDbEntity
  8
Default
  0
POLYLINE
  5
3BE
330
1F
100
AcDbEntity
  8
Default
100
AcDb2dPolyline
 66
     1
 10
0.0
 20
0.0
 30
0.0
  0
VERTEX
  5
3BF
330
3BE
100
AcDbEntity
  8
Default
100
AcDbVertex
100
AcDb2dVertex
 10
30.0
 20
0.0
 30
0.0
  0
VERTEX
  5
3C0
330
3BE
100
AcDbEntity
  8
Default
100
AcDbVertex
100
AcDb2dVertex
 10
35.0
 20
-20.0
 30
0.0
  0
VERTEX
  5
3C1
330
3BE
100
AcDbEntity
  8
Default
100
AcDbVertex
100
AcDb2dVertex
 10
40.0
 20
-20.0
 30
0.0
  0
VERTEX
  5
3C2
330
3BE
100
AcDbEntity
  8
Default
100
AcDbVertex
100
AcDb2dVertex
 10
45.0
 20
0.0
 30
0.0
  0
SEQEND
  5
3C3
330
3BE
100
AcDbEntity
  8
Default
  0
POLYLINE
  5
3C4
330
1F
100
AcDbEntity
  8
Default
100
AcDb2dPolyline
 66
     1
 10
0.0
 20
0.0
 30
0.0
  0
VERTEX
  5
3C5
330
3C4
100
AcDbEntity
  8
Default
100
AcDbVertex
100
AcDb2dVertex
 10
0.0
 20
0.0
 30
0.0
  0
VERTEX
  5
3C6
330
3C4
100
AcDbEntity
  8
Default
100
AcDbVertex
100
AcDb2dVertex
 10
5.0
 20
-20.0
 30
0.0
  0
VERTEX
  5
3C7
330
3C4
100
AcDbEntity
  8
Default
100
AcDbVertex
100
AcDb2dVertex
 10
10.0
 20
-20.0
 30
0.0
  0
VERTEX
  5
3C8
330
3C4
100
AcDbEntity
  8
Default
100
AcDbVertex
100
AcDb2dVertex
 10
15.0
 20
0.0
 30
0.0
  0
SEQEND
  5
3C9
330
3C4
100
AcDbEntity
  8
Default
  0
SPLINE
  5
3CA
330
1F
100
AcDbEntity
  8
Default
100
AcDbSpline
210
0.0
220
0.0
230
1.0
 70
     8
 71
     2
 72
     6
 73
     3
 74
     0
 42
0.0000000001
 43
0.0000000001
 40
0.0
 40
0.0
 40
0.0
 40
1.0
 40
1.0
 40
1.0
 10
160.901945
 20
-50.537445
 30
0.0
 10
152.770335
 20
-29.35388
 30
0.0
 10
150.398515
 20
-6.787514999999999
 30
0.0
  0
SPLINE
  5
3CB
330
1F
100
AcDbEntity
  8
Default
100
AcDbSpline
210
0.0
220
0.0
230
1.0
 70
     8
 71
     2
 72
     6
 73
     3
 74
     0
 42
0.0000000001
 43
0.0000000001
 40
0.0
 40
0.0
 40
0.0
 40
1.0
 40
1.0
 40
1.0
 10
149.220735
 20
-51.765185
 30
0.0
 10
152.770335
 20
-29.35388
 30
0.0
 10
150.398515
 20
-6.787514999999999
 30
0.0
  0
LINE
  5
3CC
330
1F
100
AcDbEntity
  8
Default
100
AcDbLine
 10
149.220735
 20
-51.765185
 30
0.0
 11
160.901945
 21
-50.537445
 31
0.0
  0
SPLINE
  5
3CD
330
1F
100
AcDbEntity
  8
Default
100
AcDbSpline
210
0.0
220
0.0
230
1.0
 70
     8
 71
     2
 72
     6
 73
     3
 74
     0
 42
0.0000000001
 43
0.0000000001
 40
0.0
 40
0.0
 40
0.0
 40
1.0
 40
1.0
 40
1.0
 10
75.77926500000001
 20
-51.765185
 30
0.0
 10
72.229665
 20
-29.35388
 30
0.0
 10
74.601485
 20
-6.787514999999999
 30
0.0
  0
SPLINE
  5
3CE
330
1F
100
AcDbEntity
  8
Default
100
AcDbSpline
210
0.0
220
0.0
230
1.0
 70
     8
 71
     2
 72
     6
 73
     3
 74
     0
 42
0.0000000001
 43
0.0000000001
 40
0.0
 40
0.0
 40
0.0
 40
1.0
 40
1.0
 40
1.0
 10
64.098055
 20
-50.537445
 30
0.0
 10
72.229665
 20
-29.35388
 30
0.0
 10
74.601485
 20
-6.787514999999999
 30
0.0
  0
LINE
  5
3CF
330
1F
100
AcDbEntity
  8
Default
100
AcDbLine
 10
64.098055
 20
-50.537445
 30
0.0
 11
75.77926500000001
 21
-51.765185
 31
0.0
  0
LINE
  5
3D0
330
1F
100
AcDbEntity
  8
Default
100
AcDbLine
 10
162.934845
 20
-55.83333500000001
 30
0.0
 11
225.0
 21
-20.0
 31
0.0
  0
LINE
  5
3D1
330
1F
100
AcDbEntity
  8
Default
100
AcDbLine
 10
152.770335
 20
-29.35388
 30
0.0
 11
162.934845
 21
-55.83333500000001
 31
0.0
  0
LINE
  5
3D2
330
1F
100
AcDbEntity
  8
Default
100
AcDbLine
 10
148.333335
 20
-57.368015
 30
0.0
 11
152.770335
 21
-29.35388
 31
0.0
  0
LINE
  5
3D3
330
1F
100
AcDbEntity
  8
Default
100
AcDbLine
 10
76.666665
 20
-57.368015
 30
0.0
 11
148.333335
 21
-57.368015
 31
0.0
  0
LINE
  5
3D4
330
1F
100
AcDbEntity
  8
Default
100
AcDbLine
 10
0.0
 20
-20.0
 30
0.0
 11
62.065155
 21
-55.83333500000001
 31
0.0
  0
POLYLINE
  5
3D5
330
1F
100
AcDbEntity
  8
Default
100
AcDb2dPolyline
 66
     1
 10
0.0
 20
0.0
 30
0.0
  0
VERTEX
  5
3D6
330
3D5
100
AcDbEntity
  8
Default
100
AcDbVertex
100
AcDb2dVertex
 10
0.0
 20
-20.0
 30
0.0
  0
VERTEX
  5
3D7
330
3D5
100
AcDbEntity
  8
Default
100
AcDbVertex
100
AcDb2dVertex
 10
0.0
 20
0.0
 30
0.0
  0
VERTEX
  5
3D8
330
3D5
100
AcDbEntity
  8
Default
100
AcDbVertex
100
AcDb2dVertex
 10
225.0
 20
0.0
 30
0.0
  0
VERTEX
  5
3D9
330
3D5
100
AcDbEntity
  8
Default
100
AcDbVertex
100
AcDb2dVertex
 10
225.0
 20
-20.0
 30
0.0
  0
SEQEND
  5
3DA
330
3D5
100
AcDbEntity
  8
Default
  0
ENDSEC
  0
SECTION
  2
OBJECTS
  0
DICTIONARY
  5
C
330
0
100
AcDbDictionary
281
     1
  3
ACAD_GROUP
350
D
  3
ACAD_LAYOUT
350
1A
  3
ACAD_MLEADERSTYLE
350
3DE
  3
ACAD_MLINESTYLE
350
17
  3
ACAD_PLOTSETTINGS
350
19
  3
ACAD_PLOTSTYLENAME
350
E
  3
ACAD_SCALELIST
350
3D
  3
ACAD_TABLESTYLE
350
3DD
  3
ACAD_VISUALSTYLE
350
2A
  3
AcDbVariableDictionary
350
3DB
  0
DICTIONARY
  5
D
102
{ACAD_REACTORS
330
C
102
}
330
C
100
AcDbDictionary
281
     1
  0
DICTIONARY
  5
1A
102
{ACAD_REACTORS
330
C
102
}
330
C
100
AcDbDictionary
281
     1
  3
Layout1
350
1E
  3
Layout2
350
26
  3
Model
350
22
  0
DICTIONARY
  5
3DE
102
{ACAD_REACTORS
330
C
102
}
330
C
100
AcDbDictionary
281
     1
  0
DICTIONARY
  5
17
102
{ACAD_REACTORS
330
C
102
}
330
C
100
AcDbDictionary
281
     1
  3
Standard
350
18
  0
DICTIONARY
  5
19
102
{ACAD_REACTORS
330
C
102
}
330
C
100
AcDbDictionary
281
     1
  0
ACDBDICTIONARYWDFLT
  5
E
102
{ACAD_REACTORS
330
C
102
}
330
C
100
AcDbDictionary
281
     1
  3
Normal
350
F
100
AcDbDictionaryWithDefault
340
F
  0
DICTIONARY
  5
3D
102
{ACAD_REACTORS
330
C
102
}
330
C
100
AcDbDictionary
281
     1
  3
A0
350
3E
  3
A1
350
3F
  3
A2
350
40
  3
A3
350
41
  3
A4
350
42
  3
A5
350
43
  3
A6
350
44
  3
A7
350
45
  3
A8
350
46
  3
A9
350
47
  3
B0
350
48
  3
B1
350
49
  3
B2
350
4A
  3
B3
350
4B
  3
B4
350
4C
  3
B5
350
4D
  3
B6
350
4E
  3
B7
350
4F
  3
B8
350
50
  3
B9
350
51
  3
C0
350
52
  3
C1
350
53
  3
C2
350
54
  3
C3
350
55
  3
C4
350
56
  3
C5
350
57
  3
C6
350
58
  3
C7
350
59
  3
C8
350
5A
  3
C9
350
5B
  3
D0
350
5C
  3
D1
350
5D
  3
D2
350
5E
  0
DICTIONARY
  5
3DD
102
{ACAD_REACTORS
330
C
102
}
330
C
100
AcDbDictionary
281
     1
  0
DICTIONARY
  5
2A
102
{ACAD_REACTORS
330
C
102
}
330
C
100
AcDbDictionary
281
     1
  3
2dWireframe
350
2F
  3
3D Hidden
350
31
  3
3dWireframe
350
30
  3
Basic
350
32
  3
Brighten
350
36
  3
ColorChange
350
3A
  3
Conceptual
350
34
  3
Dim
350
35
  3
Facepattern
350
39
  3
Flat
350
2B
  3
FlatWithEdges
350
2C
  3
Gouraud
350
2D
  3
GouraudWithEdges
350
2E
  3
Linepattern
350
38
  3
Realistic
350
33
  3
Thicken
350
37
  0
DICTIONARY
  5
3DB
102
{ACAD_REACTORS
330
C
102
}
330
C
100
AcDbDictionary
281
     1
  3
CANNOSCALE
350
3DC
  0
LAYOUT
  5
1E
102
{ACAD_REACTORS
330
1A
102
}
330
1A
100
AcDbPlotSettings
  1

  2
none_device
  4

  6

 40
0.0
 41
0.0
 42
0.0
 43
0.0
 44
0.0
 45
0.0
 46
0.0
 47
0.0
 48
0.0
 49
0.0
140
0.0
141
0.0
142
1.0
143
1.0
 70
   688
 72
     0
 73
     0
 74
     5
  7

 75
    16
 76
     0
 77
     2
 78
   300
147
1.0
148
0.0
149
0.0
100
AcDbLayout
  1
Layout1
 70
     1
 71
     1
 10
0.0
 20
0.0
 11
12.0
 21
9.0
 12
0.0
 22
0.0
 32
0.0
 14
1.000000000000000E+20
 24
1.000000000000000E+20
 34
1.000000000000000E+20
 15
-1.000000000000000E+20
 25
-1.000000000000000E+20
 35
-1.000000000000000E+20
146
0.0
 13
0.0
 23
0.0
 33
0.0
 16
1.0
 26
0.0
 36
0.0
 17
0.0
 27
1.0
 37
0.0
 76
     0
330
1B
  0
LAYOUT
  5
26
102
{ACAD_REACTORS
330
1A
102
}
330
1A
100
AcDbPlotSettings
  1

  2
none_device
  4

  6

 40
0.0
 41
0.0
 42
0.0
 43
0.0
 44
0.0
 45
0.0
 46
0.0
 47
0.0
 48
0.0
 49
0.0
140
0.0
141
0.0
142
1.0
143
1.0
 70
   688
 72
     0
 73
     0
 74
     5
  7

 75
    16
 76
     0
 77
     2
 78
   300
147
1.0
148
0.0
149
0.0
100
AcDbLayout
  1
Layout2
 70
     1
 71
     2
 10
0.0
 20
0.0
 11
0.0
 21
0.0
 12
0.0
 22
0.0
 32
0.0
 14
0.0
 24
0.0
 34
0.0
 15
0.0
 25
0.0
 35
0.0
146
0.0
 13
0.0
 23
0.0
 33
0.0
 16
1.0
 26
0.0
 36
0.0
 17
0.0
 27
1.0
 37
0.0
 76
     0
330
23
  0
LAYOUT
  5
22
102
{ACAD_REACTORS
330
1A
102
}
330
1A
100
AcDbPlotSettings
  1

  2
none_device
  4

  6

 40
0.0
 41
0.0
 42
0.0
 43
0.0
 44
0.0
 45
0.0
 46
0.0
 47
0.0
 48
0.0
 49
0.0
140
0.0
141
0.0
142
1.0
143
1.0
 70
  1712
 72
     0
 73
     0
 74
     0
  7

 75
     0
 76
     0
 77
     2
 78
   300
147
1.0
148
0.0
149
0.0
100
AcDbLayout
  1
Model
 70
     1
 71
     0
 10
0.0
 20
0.0
 11
12.0
 21
9.0
 12
0.0
 22
0.0
 32
0.0
 14
-79.0
 24
-72.0
 34
0.0
 15
225.0
 25
72.66122492754523
 35
0.0
146
0.0
 13
0.0
 23
0.0
 33
0.0
 16
1.0
 26
0.0
 36
0.0
 17
0.0
 27
1.0
 37
0.0
 76
     0
330
1F
331
29
  0
MLINESTYLE
  5
18
102
{ACAD_REACTORS
330
17
102
}
330
17
100
AcDbMlineStyle
  2
Standard
 70
     0
  3

 62
   256
 51
90.0
 52
90.0
 71
     2
 49
0.5
 62
   256
  6
BYLAYER
 49
-0.5
 62
   256
  6
BYLAYER
  0
ACDBPLACEHOLDER
  5
F
102
{ACAD_REACTORS
330
E
102
}
330
E
  0
SCALE
  5
3E
102
{ACAD_REACTORS
330
3D
102
}
330
3D
100
AcDbScale
 70
     0
300
1:1
140
1.0
141
1.0
290
     1
  0
SCALE
  5
3F
102
{ACAD_REACTORS
330
3D
102
}
330
3D
100
AcDbScale
 70
     0
300
1:2
140
1.0
141
2.0
290
     0
  0
SCALE
  5
40
102
{ACAD_REACTORS
330
3D
102
}
330
3D
100
AcDbScale
 70
     0
300
1:4
140
1.0
141
4.0
290
     0
  0
SCALE
  5
41
102
{ACAD_REACTORS
330
3D
102
}
330
3D
100
AcDbScale
 70
     0
300
1:5
140
1.0
141
5.0
290
     0
  0
SCALE
  5
42
102
{ACAD_REACTORS
330
3D
102
}
330
3D
100
AcDbScale
 70
     0
300
1:8
140
1.0
141
8.0
290
     0
  0
SCALE
  5
43
102
{ACAD_REACTORS
330
3D
102
}
330
3D
100
AcDbScale
 70
     0
300
1:10
140
1.0
141
10.0
290
     0
  0
SCALE
  5
44
102
{ACAD_REACTORS
330
3D
102
}
330
3D
100
AcDbScale
 70
     0
300
1:16
140
1.0
141
16.0
290
     0
  0
SCALE
  5
45
102
{ACAD_REACTORS
330
3D
102
}
330
3D
100
AcDbScale
 70
     0
300
1:20
140
1.0
141
20.0
290
     0
  0
SCALE
  5
46
102
{ACAD_REACTORS
330
3D
102
}
330
3D
100
AcDbScale
 70
     0
300
1:30
140
1.0
141
30.0
290
     0
  0
SCALE
  5
47
102
{ACAD_REACTORS
330
3D
102
}
330
3D
100
AcDbScale
 70
     0
300
1:40
140
1.0
141
40.0
290
     0
  0
SCALE
  5
48
102
{ACAD_REACTORS
330
3D
102
}
330
3D
100
AcDbScale
 70
     0
300
1:50
140
1.0
141
50.0
290
     0
  0
SCALE
  5
49
102
{ACAD_REACTORS
330
3D
102
}
330
3D
100
AcDbScale
 70
     0
300
1:100
140
1.0
141
100.0
290
     0
  0
SCALE
  5
4A
102
{ACAD_REACTORS
330
3D
102
}
330
3D
100
AcDbScale
 70
     0
300
2:1
140
2.0
141
1.0
290
     0
  0
SCALE
  5
4B
102
{ACAD_REACTORS
330
3D
102
}
330
3D
100
AcDbScale
 70
     0
300
4:1
140
4.0
141
1.0
290
     0
  0
SCALE
  5
4C
102
{ACAD_REACTORS
330
3D
102
}
330
3D
100
AcDbScale
 70
     0
300
8:1
140
8.0
141
1.0
290
     0
  0
SCALE
  5
4D
102
{ACAD_REACTORS
330
3D
102
}
330
3D
100
AcDbScale
 70
     0
300
10:1
140
10.0
141
1.0
290
     0
  0
SCALE
  5
4E
102
{ACAD_REACTORS
330
3D
102
}
330
3D
100
AcDbScale
 70
     0
300
100:1
140
100.0
141
1.0
290
     0
  0
SCALE
  5
4F
102
{ACAD_REACTORS
330
3D
102
}
330
3D
100
AcDbScale
 70
     0
300
1/128" = 1'-0"
140
0.0078125
141
12.0
290
     0
  0
SCALE
  5
50
102
{ACAD_REACTORS
330
3D
102
}
330
3D
100
AcDbScale
 70
     0
300
1/64" = 1'-0"
140
0.015625
141
12.0
290
     0
  0
SCALE
  5
51
102
{ACAD_REACTORS
330
3D
102
}
330
3D
100
AcDbScale
 70
     0
300
1/32" = 1'-0"
140
0.03125
141
12.0
290
     0
  0
SCALE
  5
52
102
{ACAD_REACTORS
330
3D
102
}
330
3D
100
AcDbScale
 70
     0
300
1/16" = 1'-0"
140
0.0625
141
12.0
290
     0
  0
SCALE
  5
53
102
{ACAD_REACTORS
330
3D
102
}
330
3D
100
AcDbScale
 70
     0
300
3/32" = 1'-0"
140
0.09375
141
12.0
290
     0
  0
SCALE
  5
54
102
{ACAD_REACTORS
330
3D
102
}
330
3D
100
AcDbScale
 70
     0
300
1/8" = 1'-0"
140
0.125
141
12.0
290
     0
  0
SCALE
  5
55
102
{ACAD_REACTORS
330
3D
102
}
330
3D
100
AcDbScale
 70
     0
300
3/16" = 1'-0"
140
0.1875
141
12.0
290
     0
  0
SCALE
  5
56
102
{ACAD_REACTORS
330
3D
102
}
330
3D
100
AcDbScale
 70
     0
300
1/4" = 1'-0"
140
0.25
141
12.0
290
     0
  0
SCALE
  5
57
102
{ACAD_REACTORS
330
3D
102
}
330
3D
100
AcDbScale
 70
     0
300
3/8" = 1'-0"
140
0.375
141
12.0
290
     0
  0
SCALE
  5
58
102
{ACAD_REACTORS
330
3D
102
}
330
3D
100
AcDbScale
 70
     0
300
1/2" = 1'-0"
140
0.5
141
12.0
290
     0
  0
SCALE
  5
59
102
{ACAD_REACTORS
330
3D
102
}
330
3D
100
AcDbScale
 70
     0
300
3/4" = 1'-0"
140
0.75
141
12.0
290
     0
  0
SCALE
  5
5A
102
{ACAD_REACTORS
330
3D
102
}
330
3D
100
AcDbScale
 70
     0
300
1" = 1'-0"
140
1.0
141
12.0
290
     0
  0
SCALE
  5
5B
102
{ACAD_REACTORS
330
3D
102
}
330
3D
100
AcDbScale
 70
     0
300
1-1/2" = 1'-0"
140
1.5
141
12.0
290
     0
  0
SCALE
  5
5C
102
{ACAD_REACTORS
330
3D
102
}
330
3D
100
AcDbScale
 70
     0
300
3" = 1'-0"
140
3.0
141
12.0
290
     0
  0
SCALE
  5
5D
102
{ACAD_REACTORS
330
3D
102
}
330
3D
100
AcDbScale
 70
     0
300
6" = 1'-0"
140
6.0
141
12.0
290
     0
  0
SCALE
  5
5E
102
{ACAD_REACTORS
330
3D
102
}
330
3D
100
AcDbScale
 70
     0
300
1'-0" = 1'-0"
140
12.0
141
12.0
290
     0
  0
VISUALSTYLE
  5
2F
102
{ACAD_REACTORS
330
2A
102
}
330
2A
100
AcDbVisualStyle
  2
2dWireframe
 70
     4
 71
     0
 72
     2
 73
     0
 90
        0
 40
-0.6
 41
-30.0
 62
     5
 63
     7
421
 16777215
 74
     1
 91
        4
 64
     7
 65
   257
 75
     1
175
     1
 42
1.0
 92
        0
 66
   257
 43
1.0
 76
     1
 77
     6
 78
     2
 67
     7
 79
     5
170
     0
171
     0
290
     0
174
     0
 93
        1
 44
0.0
173
     0
291
     0
 45
0.0
1001
ACAD
1000
AcDbSavedByObjectVersion
1070
     0
  0
VISUALSTYLE
  5
31
102
{ACAD_REACTORS
330
2A
102
}
330
2A
100
AcDbVisualStyle
  2
3D Hidden
 70
     6
 71
     1
 72
     2
 73
     2
 90
        0
 40
-0.6
 41
-30.0
 62
     5
 63
     7
421
 16777215
 74
     2
 91
        2
 64
     7
 65
   257
 75
     2
175
     1
 42
40.0
 92
        0
 66
   257
 43
1.0
 76
     1
 77
     6
 78
     2
 67
     7
 79
     3
170
     0
171
     0
290
     0
174
     0
 93
        1
 44
0.0
173
     0
291
     0
 45
0.0
1001
ACAD
1000
AcDbSavedByObjectVersion
1070
     0
  0
VISUALSTYLE
  5
30
102
{ACAD_REACTORS
330
2A
102
}
330
2A
100
AcDbVisualStyle
  2
3dWireframe
 70
     5
 71
     0
 72
     2
 73
     0
 90
        0
 40
-0.6
 41
-30.0
 62
     5
 63
     7
421
 16777215
 74
     1
 91
        4
 64
     7
 65
   257
 75
     1
175
     1
 42
1.0
 92
        0
 66
   257
 43
1.0
 76
     1
 77
     6
 78
     2
 67
     7
 79
     5
170
     0
171
     0
290
     0
174
     0
 93
        1
 44
0.0
173
     0
291
     0
 45
0.0
1001
ACAD
1000
AcDbSavedByObjectVersion
1070
     0
  0
VISUALSTYLE
  5
32
102
{ACAD_REACTORS
330
2A
102
}
330
2A
100
AcDbVisualStyle
  2
Basic
 70
     7
 71
     1
 72
     0
 73
     1
 90
        0
 40
-0.6
 41
-30.0
 62
     5
 63
     7
421
 16777215
 74
     0
 91
        4
 64
     7
 65
   257
 75
     1
175
     1
 42
1.0
 92
        8
 66
     7
 43
1.0
 76
     1
 77
     6
 78
     2
 67
     7
 79
     5
170
     0
171
     0
290
     0
174
     0
 93
        1
 44
0.0
173
     0
291
     1
 45
0.0
1001
ACAD
1000
AcDbSavedByObjectVersion
1070
     0
  0
VISUALSTYLE
  5
36
102
{ACAD_REACTORS
330
2A
102
}
330
2A
100
AcDbVisualStyle
  2
Brighten
 70
    12
 71
     2
 72
     2
 73
     0
 90
        0
 40
-0.6
 41
-30.0
 62
     5
 63
     7
421
 16777215
 74
     1
 91
        4
 64
     7
 65
   257
 75
     1
175
     1
 42
1.0
 92
        8
 66
     7
 43
1.0
 76
     1
 77
     6
 78
     2
 67
     7
 79
     5
170
     0
171
     0
290
     0
174
     0
 93
        1
 44
50.0
173
     0
291
     1
 45
0.0
1001
ACAD
1000
AcDbSavedByObjectVersion
1070
     0
  0
VISUALSTYLE
  5
3A
102
{ACAD_REACTORS
330
2A
102
}
330
2A
100
AcDbVisualStyle
  2
ColorChange
 70
    16
 71
     2
 72
     2
 73
     3
 90
        0
 40
-0.6
 41
-30.0
 62
     5
 63
     8
421
  8421504
 74
     1
 91
        4
 64
     7
 65
   257
 75
     1
175
     1
 42
1.0
 92
        8
 66
     8
424
  8421504
 43
1.0
 76
     1
 77
     6
 78
     2
 67
     7
 79
     5
170
     0
171
     0
290
     0
174
     0
 93
        1
 44
0.0
173
     0
291
     1
 45
0.0
1001
ACAD
1000
AcDbSavedByObjectVersion
1070
     0
  0
VISUALSTYLE
  5
34
102
{ACAD_REACTORS
330
2A
102
}
330
2A
100
AcDbVisualStyle
  2
Conceptual
 70
     9
 71
     3
 72
     2
 73
     0
 90
        0
 40
-0.6
 41
-30.0
 62
     5
 63
     7
421
 16777215
 74
     2
 91
        2
 64
     7
 65
   257
 75
     1
175
     1
 42
40.0
 92
        8
 66
     7
 43
1.0
 76
     1
 77
     6
 78
     2
 67
     7
 79
     3
170
     0
171
     0
290
     0
174
     0
 93
        1
 44
0.0
173
     0
291
     0
 45
0.0
1001
ACAD
1000
AcDbSavedByObjectVersion
1070
     0
  0
VISUALSTYLE
  5
35
102
{ACAD_REACTORS
330
2A
102
}
330
2A
100
AcDbVisualStyle
  2
Dim
 70
    11
 71
     2
 72
     2
 73
     0
 90
        0
 40
-0.6
 41
-30.0
 62
     5
 63
     7
421
 16777215
 74
     1
 91
        4
 64
     7
 65
   257
 75
     1
175
     1
 42
1.0
 92
        8
 66
     7
 43
1.0
 76
     1
 77
     6
 78
     2
 67
     7
 79
     5
170
     0
171
     0
290
     0
174
     0
 93
        1
 44
-50.0
173
     0
291
     1
 45
0.0
1001
ACAD
1000
AcDbSavedByObjectVersion
1070
     0
  0
VISUALSTYLE
  5
39
102
{ACAD_REACTORS
330
2A
102
}
330
2A
100
AcDbVisualStyle
  2
Facepattern
 70
    15
 71
     2
 72
     2
 73
     0
 90
        0
 40
-0.6
 41
-30.0
 62
     5
 63
     7
421
 16777215
 74
     1
 91
        4
 64
     7
 65
   257
 75
     1
175
     1
 42
1.0
 92
        8
 66
     7
 43
1.0
 76
     1
 77
     6
 78
     2
 67
     7
 79
     5
170
     0
171
     0
290
     0
174
     0
 93
        1
 44
0.0
173
     0
291
     1
 45
0.0
1001
ACAD
1000
AcDbSavedByObjectVersion
1070
     0
  0
VISUALSTYLE
  5
2B
102
{ACAD_REACTORS
330
2A
102
}
330
2A
100
AcDbVisualStyle
  2
Flat
 70
     0
 71
     2
 72
     1
 73
     1
 90
        2
 40
-0.6
 41
30.0
 62
     5
 63
     7
421
 16777215
 74
     0
 91
        4
 64
     7
 65
   257
 75
     1
175
     1
 42
1.0
 92
        8
 66
     7
 43
1.0
 76
     1
 77
     6
 78
     2
 67
     7
 79
     5
170
     0
171
     0
290
     0
174
     0
 93
       13
 44
0.0
173
     0
291
     1
 45
0.0
1001
ACAD
1000
AcDbSavedByObjectVersion
1070
     0
  0
VISUALSTYLE
  5
2C
102
{ACAD_REACTORS
330
2A
102
}
330
2A
100
AcDbVisualStyle
  2
FlatWithEdges
 70
     1
 71
     2
 72
     1
 73
     1
 90
        2
 40
-0.6
 41
30.0
 62
     5
 63
     7
421
 16777215
 74
     1
 91
        4
 64
     7
 65
   257
 75
     1
175
     1
 42
1.0
 92
        0
 66
   257
 43
1.0
 76
     1
 77
     6
 78
     2
 67
     7
 79
     5
170
     0
171
     0
290
     0
174
     0
 93
       13
 44
0.0
173
     0
291
     1
 45
0.0
1001
ACAD
1000
AcDbSavedByObjectVersion
1070
     0
  0
VISUALSTYLE
  5
2D
102
{ACAD_REACTORS
330
2A
102
}
330
2A
100
AcDbVisualStyle
  2
Gouraud
 70
     2
 71
     2
 72
     2
 73
     1
 90
        2
 40
-0.6
 41
30.0
 62
     5
 63
     7
421
 16777215
 74
     0
 91
        4
 64
     7
 65
   257
 75
     1
175
     1
 42
1.0
 92
        0
 66
     7
 43
1.0
 76
     1
 77
     6
 78
     2
 67
     7
 79
     5
170
     0
171
     0
290
     0
174
     0
 93
       13
 44
0.0
173
     0
291
     1
 45
0.0
1001
ACAD
1000
AcDbSavedByObjectVersion
1070
     0
  0
VISUALSTYLE
  5
2E
102
{ACAD_REACTORS
330
2A
102
}
330
2A
100
AcDbVisualStyle
  2
GouraudWithEdges
 70
     3
 71
     2
 72
     2
 73
     1
 90
        2
 40
-0.6
 41
30.0
 62
     5
 63
     7
421
 16777215
 74
     1
 91
        4
 64
     7
 65
   257
 75
     1
175
     1
 42
1.0
 92
        0
 66
   257
 43
1.0
 76
     1
 77
     6
 78
     2
 67
     7
 79
     5
170
     0
171
     0
290
     0
174
     0
 93
       13
 44
0.0
173
     0
291
     1
 45
0.0
1001
ACAD
1000
AcDbSavedByObjectVersion
1070
     0
  0
VISUALSTYLE
  5
38
102
{ACAD_REACTORS
330
2A
102
}
330
2A
100
AcDbVisualStyle
  2
Linepattern
 70
    14
 71
     2
 72
     2
 73
     0
 90
        0
 40
-0.6
 41
-30.0
 62
     5
 63
     7
421
 16777215
 74
     1
 91
        4
 64
     7
 65
   257
 75
     7
175
     7
 42
1.0
 92
        8
 66
     7
 43
1.0
 76
     1
 77
     6
 78
     2
 67
     7
 79
     5
170
     0
171
     0
290
     0
174
     0
 93
        1
 44
0.0
173
     0
291
     1
 45
0.0
1001
ACAD
1000
AcDbSavedByObjectVersion
1070
     0
  0
VISUALSTYLE
  5
33
102
{ACAD_REACTORS
330
2A
102
}
330
2A
100
AcDbVisualStyle
  2
Realistic
 70
     8
 71
     2
 72
     2
 73
     0
 90
        0
 40
-0.6
 41
-30.0
 62
     5
 63
     7
421
 16777215
 74
     1
 91
        0
 64
     7
 65
   257
 75
     1
175
     1
 42
1.0
 92
        8
 66
     8
424
  7895160
 43
1.0
 76
     1
 77
     6
 78
     2
 67
     7
 79
     5
170
     0
171
     0
290
     0
174
     0
 93
       13
 44
0.0
173
     0
291
     0
 45
0.0
1001
ACAD
1000
AcDbSavedByObjectVersion
1070
     0
  0
VISUALSTYLE
  5
37
102
{ACAD_REACTORS
330
2A
102
}
330
2A
100
AcDbVisualStyle
  2
Thicken
 70
    13
 71
     2
 72
     2
 73
     0
 90
        0
 40
-0.6
 41
-30.0
 62
     5
 63
     7
421
 16777215
 74
     1
 91
        4
 64
     7
 65
   257
 75
     1
175
     1
 42
1.0
 92
       12
 66
     7
 43
1.0
 76
     1
 77
     6
 78
     2
 67
     7
 79
     5
170
     0
171
     0
290
     0
174
     0
 93
        1
 44
0.0
173
     0
291
     1
 45
0.0
1001
ACAD
1000
AcDbSavedByObjectVersion
1070
     0
  0
DICTIONARYVAR
  5
3DC
102
{ACAD_REACTORS
330
3DB
102
}
330
3DB
100
DictionaryVariables
280
     0
  1
1:1
  0
ENDSEC
  0
EOF
